  0
SECTION
  2
HEADER
  9
$ACADVER
  1
AC1015
  9
$ACADMAINTVER
 70
     6
  9
$DWGCODEPAGE
  3
ANSI_1252
  9
$INSBASE
 10
0.0
 20
0.0
 30
0.0
  9
$EXTMIN
 10
-12.0
 20
-1.4497
 30
0.0
  9
$EXTMAX
 10
12.0
 20
2.0890556007
 30
0.0
  9
$LIMMIN
 10
0.0
 20
0.0
  9
$LIMMAX
 10
12.0
 20
9.0
  9
$ORTHOMODE
 70
     0
  9
$REGENMODE
 70
     1
  9
$FILLMODE
 70
     1
  9
$QTEXTMODE
 70
     0
  9
$MIRRTEXT
 70
     1
  9
$LTSCALE
 40
1.0
  9
$ATTMODE
 70
     1
  9
$TEXTSIZE
 40
0.1388888889
  9
$TRACEWID
 40
0.05
  9
$TEXTSTYLE
  7
Standard
  9
$CLAYER
  8
0
  9
$CELTYPE
  6
ByLayer
  9
$CECOLOR
 62
   256
  9
$CELTSCALE
 40
1.0
  9
$DISPSILH
 70
     0
  9
$DIMSCALE
 40
1.0
  9
$DIMASZ
 40
0.075
  9
$DIMEXO
 40
0.0
  9
$DIMDLI
 40
0.38
  9
$DIMRND
 40
0.0
  9
$DIMDLE
 40
0.0
  9
$DIMEXE
 40
0.05
  9
$DIMTP
 40
0.0
  9
$DIMTM
 40
0.0
  9
$DIMTXT
 40
0.1388888889
  9
$DIMCEN
 40
0.09
  9
$DIMTSZ
 40
0.0
  9
$DIMTOL
 70
     0
  9
$DIMLIM
 70
     0
  9
$DIMTIH
 70
     1
  9
$DIMTOH
 70
     1
  9
$DIMSE1
 70
     0
  9
$DIMSE2
 70
     0
  9
$DIMTAD
 70
     0
  9
$DIMZIN
 70
     1
  9
$DIMBLK
  1

  9
$DIMASO
 70
     1
  9
$DIMSHO
 70
     1
  9
$DIMPOST
  1

  9
$DIMAPOST
  1

  9
$DIMALT
 70
     0
  9
$DIMALTD
 70
     2
  9
$DIMALTF
 40
25.4
  9
$DIMLFAC
 40
1.0
  9
$DIMTOFL
 70
     0
  9
$DIMTVP
 40
0.0
  9
$DIMTIX
 70
     0
  9
$DIMSOXD
 70
     0
  9
$DIMSAH
 70
     0
  9
$DIMBLK1
  1

  9
$DIMBLK2
  1

  9
$DIMSTYLE
  2
Standard
  9
$DIMCLRD
 70
     0
  9
$DIMCLRE
 70
     0
  9
$DIMCLRT
 70
     0
  9
$DIMTFAC
 40
1.0
  9
$DIMGAP
 40
0.08
  9
$DIMJUST
 70
     0
  9
$DIMSD1
 70
     0
  9
$DIMSD2
 70
     0
  9
$DIMTOLJ
 70
     1
  9
$DIMTZIN
 70
     1
  9
$DIMALTZ
 70
     0
  9
$DIMALTTZ
 70
     0
  9
$DIMUPT
 70
     0
  9
$DIMDEC
 70
     3
  9
$DIMTDEC
 70
     3
  9
$DIMALTU
 70
     2
  9
$DIMALTTD
 70
     2
  9
$DIMTXSTY
  7
Standard
  9
$DIMAUNIT
 70
     0
  9
$DIMADEC
 70
     1
  9
$DIMALTRND
 40
0.0
  9
$DIMAZIN
 70
     0
  9
$DIMDSEP
 70
    46
  9
$DIMATFIT
 70
     3
  9
$DIMFRAC
 70
     0
  9
$DIMLDRBLK
  1

  9
$DIMLUNIT
 70
     2
  9
$DIMLWD
 70
    -2
  9
$DIMLWE
 70
    -2
  9
$DIMTMOVE
 70
     0
  9
$LUNITS
 70
     2
  9
$LUPREC
 70
     6
  9
$SKETCHINC
 40
0.1
  9
$FILLETRAD
 40
0.0
  9
$AUNITS
 70
     0
  9
$AUPREC
 70
     1
  9
$MENU
  1
.
  9
$ELEVATION
 40
0.0
  9
$PELEVATION
 40
0.0
  9
$THICKNESS
 40
0.0
  9
$LIMCHECK
 70
     0
  9
$CHAMFERA
 40
0.0
  9
$CHAMFERB
 40
0.0
  9
$CHAMFERC
 40
0.0
  9
$CHAMFERD
 40
0.0
  9
$SKPOLY
 70
     0
  9
$TDCREATE
 40
2460900.567334537
  9
$TDUCREATE
 40
2460900.775667871
  9
$TDUPDATE
 40
2460900.567362801
  9
$TDUUPDATE
 40
2460900.775696134
  9
$TDINDWG
 40
0.0000000116
  9
$TDUSRTIMER
 40
0.0000000116
  9
$USRTIMER
 70
     1
  9
$ANGBASE
 50
0.0
  9
$ANGDIR
 70
     0
  9
$PDMODE
 70
     0
  9
$PDSIZE
 40
-1.0
  9
$PLINEWID
 40
0.0
  9
$SPLFRAME
 70
     0
  9
$SPLINETYPE
 70
     6
  9
$SPLINESEGS
 70
     8
  9
$HANDSEED
  5
2DB
  9
$SURFTAB1
 70
     6
  9
$SURFTAB2
 70
     6
  9
$SURFTYPE
 70
     6
  9
$SURFU
 70
     6
  9
$SURFV
 70
     6
  9
$UCSBASE
  2

  9
$UCSNAME
  2

  9
$UCSORG
 10
0.0
 20
0.0
 30
0.0
  9
$UCSXDIR
 10
1.0
 20
0.0
 30
0.0
  9
$UCSYDIR
 10
0.0
 20
1.0
 30
0.0
  9
$UCSORTHOREF
  2

  9
$UCSORTHOVIEW
 70
     0
  9
$UCSORGTOP
 10
0.0
 20
0.0
 30
0.0
  9
$UCSORGBOTTOM
 10
0.0
 20
0.0
 30
0.0
  9
$UCSORGLEFT
 10
0.0
 20
0.0
 30
0.0
  9
$UCSORGRIGHT
 10
0.0
 20
0.0
 30
0.0
  9
$UCSORGFRONT
 10
0.0
 20
0.0
 30
0.0
  9
$UCSORGBACK
 10
0.0
 20
0.0
 30
0.0
  9
$PUCSBASE
  2

  9
$PUCSNAME
  2

  9
$PUCSORG
 10
0.0
 20
0.0
 30
0.0
  9
$PUCSXDIR
 10
1.0
 20
0.0
 30
0.0
  9
$PUCSYDIR
 10
0.0
 20
1.0
 30
0.0
  9
$PUCSORTHOREF
  2

  9
$PUCSORTHOVIEW
 70
     0
  9
$PUCSORGTOP
 10
0.0
 20
0.0
 30
0.0
  9
$PUCSORGBOTTOM
 10
0.0
 20
0.0
 30
0.0
  9
$PUCSORGLEFT
 10
0.0
 20
0.0
 30
0.0
  9
$PUCSORGRIGHT
 10
0.0
 20
0.0
 30
0.0
  9
$PUCSORGFRONT
 10
0.0
 20
0.0
 30
0.0
  9
$PUCSORGBACK
 10
0.0
 20
0.0
 30
0.0
  9
$USERI1
 70
     0
  9
$USERI2
 70
     0
  9
$USERI3
 70
     0
  9
$USERI4
 70
     0
  9
$USERI5
 70
     0
  9
$USERR1
 40
0.0
  9
$USERR2
 40
0.0
  9
$USERR3
 40
0.0
  9
$USERR4
 40
0.0
  9
$USERR5
 40
0.0
  9
$WORLDVIEW
 70
     1
  9
$SHADEDGE
 70
     3
  9
$SHADEDIF
 70
    70
  9
$TILEMODE
 70
     1
  9
$MAXACTVP
 70
    64
  9
$PINSBASE
 10
0.0
 20
0.0
 30
0.0
  9
$PLIMCHECK
 70
     0
  9
$PEXTMIN
 10
1.0000000000E+20
 20
1.0000000000E+20
 30
1.0000000000E+20
  9
$PEXTMAX
 10
-1.0000000000E+20
 20
-1.0000000000E+20
 30
-1.0000000000E+20
  9
$PLIMMIN
 10
0.0
 20
0.0
  9
$PLIMMAX
 10
12.0
 20
9.0
  9
$UNITMODE
 70
     0
  9
$VISRETAIN
 70
     1
  9
$PLINEGEN
 70
     0
  9
$PSLTSCALE
 70
     1
  9
$TREEDEPTH
 70
  3020
  9
$CMLSTYLE
  2
Standard
  9
$CMLJUST
 70
     0
  9
$CMLSCALE
 40
1.0
  9
$PROXYGRAPHICS
 70
     1
  9
$MEASUREMENT
 70
     0
  9
$CELWEIGHT
370
    -1
  9
$ENDCAPS
280
     0
  9
$JOINSTYLE
280
     0
  9
$LWDISPLAY
290
     1
  9
$INSUNITS
 70
     1
  9
$HYPERLINKBASE
  1

  9
$STYLESHEET
  1

  9
$XEDIT
290
     1
  9
$CEPSNTYPE
380
     0
  9
$PSTYLEMODE
290
     1
  9
$FINGERPRINTGUID
  2
{ff3e9f28-6260-4dc7-95d7-2b46898260a0}
  9
$VERSIONGUID
  2
{FAEB1C32-E019-11D5-929B-00C0DF256EC4}
  9
$EXTNAMES
290
     1
  9
$PSVPSCALE
 40
0.0
  9
$OLESTARTUP
290
     0
  0
ENDSEC
  0
SECTION
  2
CLASSES
  0
CLASS
  1
ACDBDICTIONARYWDFLT
  2
AcDbDictionaryWithDefault
  3
ObjectDBX Classes
 90
        0
280
     0
281
     0
  0
CLASS
  1
VISUALSTYLE
  2
AcDbVisualStyle
  3
ObjectDBX Classes
 90
     4095
280
     0
281
     0
  0
CLASS
  1
MATERIAL
  2
AcDbMaterial
  3
ObjectDBX Classes
 90
     1153
280
     0
281
     0
  0
CLASS
  1
SCALE
  2
AcDbScale
  3
ObjectDBX Classes
 90
     1153
280
     0
281
     0
  0
CLASS
  1
TABLESTYLE
  2
AcDbTableStyle
  3
ObjectDBX Classes
 90
     4095
280
     0
281
     0
  0
CLASS
  1
MLEADERSTYLE
  2
AcDbMLeaderStyle
  3
ACDB_MLEADERSTYLE_CLASS
 90
     4095
280
     0
281
     0
  0
CLASS
  1
SUN
  2
AcDbSun
  3
SCENEOE
 90
     1153
280
     0
281
     0
  0
CLASS
  1
ACDBPLACEHOLDER
  2
AcDbPlaceHolder
  3
ObjectDBX Classes
 90
        0
280
     0
281
     0
  0
CLASS
  1
LAYOUT
  2
AcDbLayout
  3
ObjectDBX Classes
 90
        0
280
     0
281
     0
  0
ENDSEC
  0
SECTION
  2
TABLES
  0
TABLE
  2
VPORT
  5
8
330
0
100
AcDbSymbolTable
 70
     1
  0
VPORT
  5
29
330
8
100
AcDbSymbolTableRecord
100
AcDbViewportTableRecord
  2
*Active
 70
     0
 10
0.0
 20
0.0
 11
1.0
 21
1.0
 12
0.0
 22
0.3196778003
 13
0.0
 23
0.0
 14
0.5
 24
0.5
 15
0.5
 25
0.5
 16
0.0
 26
0.0
 36
1.0
 17
0.0
 27
0.0
 37
0.0
 40
3.6095307127
 41
6.7820450769
 42
50.0
 43
0.0
 44
0.0
 50
0.0
 51
0.0
 71
     0
 72
   100
 73
     1
 74
     3
 75
     0
 76
     0
 77
     0
 78
     0
281
     0
 65
     1
110
0.0
120
0.0
130
0.0
111
1.0
121
0.0
131
0.0
112
0.0
122
1.0
132
0.0
 79
     0
146
0.0
  0
ENDTAB
  0
TABLE
  2
LTYPE
  5
5
330
0
100
AcDbSymbolTable
 70
     6
  0
LTYPE
  5
14
330
5
100
AcDbSymbolTableRecord
100
AcDbLinetypeTableRecord
  2
ByBlock
 70
     0
  3

 72
    65
 73
     0
 40
0.0
  0
LTYPE
  5
15
330
5
100
AcDbSymbolTableRecord
100
AcDbLinetypeTableRecord
  2
ByLayer
 70
     0
  3

 72
    65
 73
     0
 40
0.0
  0
LTYPE
  5
16
330
5
100
AcDbSymbolTableRecord
100
AcDbLinetypeTableRecord
  2
Continuous
 70
     0
  3
Solid line
 72
    65
 73
     0
 40
0.0
  0
LTYPE
  5
5E
330
5
100
AcDbSymbolTableRecord
100
AcDbLinetypeTableRecord
  2
HIDDEN
 70
     0
  3
Hidden __ __ __ __ __ __ __ __ __ __ __ __ __ __
 72
    65
 73
     2
 40
0.075
 49
0.05
 74
     0
 49
-0.025
 74
     0
  0
LTYPE
  5
5F
330
5
100
AcDbSymbolTableRecord
100
AcDbLinetypeTableRecord
  2
PHANTOM
 70
     0
  3
Phantom ______  __  __  ______  __  __  ______
 72
    65
 73
     6
 40
0.5
 49
0.25
 74
     0
 49
-0.05
 74
     0
 49
0.05
 74
     0
 49
-0.05
 74
     0
 49
0.05
 74
     0
 49
-0.05
 74
     0
  0
LTYPE
  5
60
330
5
100
AcDbSymbolTableRecord
100
AcDbLinetypeTableRecord
  2
CENTER
 70
     0
  3
Center ____ _ ____ _ ____ _ ____ _ ____ _ ____
 72
    65
 73
     4
 40
0.4
 49
0.25
 74
     0
 49
-0.05
 74
     0
 49
0.05
 74
     0
 49
-0.05
 74
     0
  0
LTYPE
  5
61
330
5
100
AcDbSymbolTableRecord
100
AcDbLinetypeTableRecord
  2
CENTERX2
 70
     0
  3
Center (2x) ________  __  ________  __  _____
 72
    65
 73
     4
 40
0.8
 49
0.5
 74
     0
 49
-0.1
 74
     0
 49
0.1
 74
     0
 49
-0.1
 74
     0
  0
LTYPE
  5
62
330
5
100
AcDbSymbolTableRecord
100
AcDbLinetypeTableRecord
  2
DOT2
 70
     0
  3
Dot (.5x) ........................................
 72
    65
 73
     2
 40
0.025
 49
0.0
 74
     0
 49
-0.025
 74
     0
  0
ENDTAB
  0
TABLE
  2
LAYER
  5
2
330
0
100
AcDbSymbolTable
 70
     1
  0
LAYER
  5
10
330
2
100
AcDbSymbolTableRecord
100
AcDbLayerTableRecord
  2
0
 70
     0
 62
     7
  6
Continuous
370
    -3
390
F
  0
ENDTAB
  0
TABLE
  2
STYLE
  5
3
330
0
100
AcDbSymbolTable
 70
     1
  0
STYLE
  5
11
330
3
100
AcDbSymbolTableRecord
100
AcDbTextStyleTableRecord
  2
Standard
 70
     0
 40
0.0
 41
1.0
 50
0.0
 71
     0
 42
0.1388888889
  3
txt
  4

  0
ENDTAB
  0
TABLE
  2
VIEW
  5
6
330
0
100
AcDbSymbolTable
 70
     0
  0
ENDTAB
  0
TABLE
  2
UCS
  5
7
330
0
100
AcDbSymbolTable
 70
     0
  0
ENDTAB
  0
TABLE
  2
APPID
  5
9
330
0
100
AcDbSymbolTable
 70
     1
  0
APPID
  5
12
330
9
100
AcDbSymbolTableRecord
100
AcDbRegAppTableRecord
  2
ACAD
 70
     0
  0
ENDTAB
  0
TABLE
  2
DIMSTYLE
  5
A
330
0
100
AcDbSymbolTable
 70
     1
100
AcDbDimStyleTable
  0
DIMSTYLE
105
27
330
A
100
AcDbSymbolTableRecord
100
AcDbDimStyleTableRecord
  2
Standard
 70
     0
178
     0
340
11
  0
ENDTAB
  0
TABLE
  2
BLOCK_RECORD
  5
1
330
0
100
AcDbSymbolTable
 70
     1
  0
BLOCK_RECORD
  5
1F
330
1
100
AcDbSymbolTableRecord
100
AcDbBlockTableRecord
  2
*Model_Space
340
22
  0
BLOCK_RECORD
  5
1B
330
1
100
AcDbSymbolTableRecord
100
AcDbBlockTableRecord
  2
*Paper_Space
340
1E
  0
BLOCK_RECORD
  5
23
330
1
100
AcDbSymbolTableRecord
100
AcDbBlockTableRecord
  2
*Paper_Space0
340
26
  0
ENDTAB
  0
ENDSEC
  0
SECTION
  2
BLOCKS
  0
BLOCK
  5
20
330
1F
100
AcDbEntity
  8
0
100
AcDbBlockBegin
  2
*Model_Space
 70
     0
 10
0.0
 20
0.0
 30
0.0
  3
*Model_Space
  1

  0
ENDBLK
  5
21
330
1F
100
AcDbEntity
  8
0
100
AcDbBlockEnd
  0
BLOCK
  5
1C
330
1B
100
AcDbEntity
 67
     1
  8
0
100
AcDbBlockBegin
  2
*Paper_Space
 70
     0
 10
0.0
 20
0.0
 30
0.0
  3
*Paper_Space
  1

  0
ENDBLK
  5
1D
330
1B
100
AcDbEntity
 67
     1
  8
0
100
AcDbBlockEnd
  0
BLOCK
  5
24
330
23
100
AcDbEntity
  8
0
100
AcDbBlockBegin
  2
*Paper_Space0
 70
     0
 10
0.0
 20
0.0
 30
0.0
  3
*Paper_Space0
  1

  0
ENDBLK
  5
25
330
23
100
AcDbEntity
  8
0
100
AcDbBlockEnd
  0
ENDSEC
  0
SECTION
  2
ENTITIES
  0
LWPOLYLINE
  5
63
330
1F
100
AcDbEntity
  8
0
  6
Continuous
 62
     7
100
AcDbPolyline
 90
       17
 70
   128
 43
0.0
 10
9.9226877008
 20
-0.1210788473
 10
9.8996026792
 20
-0.1633894524
 10
9.8618335516
 20
-0.1937793114
 10
9.8151303254
 20
-0.2076218437
 10
9.7666031432
 20
-0.2028096493
 10
9.7236398288
 20
-0.1800753411
 10
9.6927811572
 20
-0.1428800114
 10
9.6787250815
 20
-0.0968863121
 10
9.6836115118
 20
-0.0490963669
 10
9.7066965334
 20
-0.0067857617
 10
9.744465661
 20
0.0236040973
 10
9.7911688872
 20
0.0374466296
 10
9.8396960694
 20
0.0326344352
 10
9.8826593838
 20
0.009900127
 10
9.9135180554
 20
-0.0272952027
 10
9.9275741311
 20
-0.073288902
 10
9.9226877008
 20
-0.1210788473
  0
SPLINE
  5
64
330
1F
100
AcDbEntity
  8
0
  6
Continuous
 62
     7
370
    25
100
AcDbSpline
210
0.0
220
0.0
230
1.0
 70
     8
 71
     3
 72
    16
 73
    12
 74
     0
 42
0.00000001
 43
0.00000001
 40
0.0
 40
0.0
 40
0.0
 40
0.0
 40
0.1256760229507767
 40
0.2506347224845743
 40
0.3762900936787306
 40
0.5012089774633286
 40
0.6001127540190342
 40
0.6995397557593482
 40
0.799064172604305
 40
0.8979879047760086
 40
1.0
 40
1.0
 40
1.0
 40
1.0
 10
-9.16957880697004
 20
1.927765278085304
 30
0.0
 10
-9.148195673854152
 20
1.940993611791273
 30
0.0
 10
-9.10555145653634
 20
1.967374775592322
 30
0.0
 10
-9.038820505684445
 20
2.00033569589212
 30
0.0
 10
-8.97115626036819
 20
2.028190148373244
 30
0.0
 10
-8.907310416127583
 20
2.049092176556561
 30
0.0
 10
-8.847808944503772
 20
2.064458102302065
 30
0.0
 10
-8.79269380883117
 20
2.075436655656504
 30
0.0
 10
-8.737377378685547
 20
2.083203972078678
 30
0.0
 10
-8.681452819921667
 20
2.088128641326072
 30
0.0
 10
-8.644009440273772
 20
2.088743464297327
 30
0.0
 10
-8.624999999997963
 20
2.08905560066595
 30
0.0
  0
SPLINE
  5
65
330
1F
100
AcDbEntity
  8
0
  6
Continuous
 62
     7
370
    25
100
AcDbSpline
210
0.0
220
0.0
230
1.0
 70
     8
 71
     3
 72
    15
 73
    11
 74
     0
 42
0.00000001
 43
0.00000001
 40
0.0
 40
0.0
 40
0.0
 40
0.0
 40
0.1245854022727408
 40
0.2487185903905673
 40
0.3723223054419867
 40
0.4960607981190248
 40
0.6207656087849194
 40
0.7466226407303896
 40
0.8724283458451569
 40
1.0
 40
1.0
 40
1.0
 40
1.0
 10
-8.624999999997963
 20
2.08905560066595
 30
0.0
 10
-8.647639040285126
 20
2.08850625626842
 30
0.0
 10
-8.692834946750095
 20
2.087409561457473
 30
0.0
 10
-8.760346774691735
 20
2.07854667900832
 30
0.0
 10
-8.827406540430317
 20
2.064400579825286
 30
0.0
 10
-8.894080529933536
 20
2.044328789925606
 30
0.0
 10
-8.960449246680247
 20
2.018251655993359
 30
0.0
 10
-9.026046480138783
 20
1.985838580121079
 30
0.0
 10
-9.090825591595397
 20
1.947403452776265
 30
0.0
 10
-9.131886949070065
 20
1.916909063011429
 30
0.0
 10
-9.152560719252163
 20
1.901555600665952
 30
0.0
  0
SPLINE
  5
67
330
1F
100
AcDbEntity
  8
0
  6
Continuous
 62
     7
370
    25
100
AcDbSpline
210
0.0
220
0.0
230
1.0
 70
     8
 71
     3
 72
    15
 73
    11
 74
     0
 42
0.00000001
 43
0.00000001
 40
0.0
 40
0.0
 40
0.0
 40
0.0
 40
0.1275716541548436
 40
0.2533773592696201
 40
0.3792343912150985
 40
0.5039392018809976
 40
0.6276776945580437
 40
0.7512814096094689
 40
0.8754145977273031
 40
0.9999999999999999
 40
0.9999999999999999
 40
0.9999999999999999
 40
0.9999999999999999
 10
9.152560719256227
 20
1.90155560066589
 30
0.0
 10
9.131886949074131
 20
1.916909063011368
 30
0.0
 10
9.090825591599463
 20
1.947403452776206
 30
0.0
 10
9.026046480142853
 20
1.985838580121017
 30
0.0
 10
8.960449246684313
 20
2.018251655993297
 30
0.0
 10
8.894080529937602
 20
2.044328789925547
 30
0.0
 10
8.827406540434383
 20
2.064400579825225
 30
0.0
 10
8.760346774695808
 20
2.078546679008262
 30
0.0
 10
8.692834946754177
 20
2.087409561457411
 30
0.0
 10
8.647639040289203
 20
2.088506256268364
 30
0.0
 10
8.62500000000204
 20
2.089055600665895
 30
0.0
  0
SPLINE
  5
6B
330
1F
100
AcDbEntity
  8
0
  6
Continuous
 62
     7
370
    25
100
AcDbSpline
210
0.0
220
0.0
230
1.0
 70
     8
 71
     3
 72
    15
 73
    11
 74
     0
 42
0.00000001
 43
0.00000001
 40
0.0
 40
0.0
 40
0.0
 40
0.0
 40
0.1253981707174664
 40
0.2502923579118069
 40
0.3745507810061912
 40
0.498773136577267
 40
0.6236964781712631
 40
0.7493563334568417
 40
0.8743194922208911
 40
1.0
 40
1.0
 40
1.0
 40
1.0
 10
8.62500000000204
 20
2.089055600665895
 30
0.0
 10
8.648367835135364
 20
2.0885831851401
 30
0.0
 10
8.695009588530572
 20
2.087640252757682
 30
0.0
 10
8.76468426526793
 20
2.080019489236546
 30
0.0
 10
8.833888426629082
 20
2.067856796674604
 30
0.0
 10
8.902687911420491
 20
2.050600944639624
 30
0.0
 10
8.971155688648086
 20
2.028191568189226
 30
0.0
 10
9.038820657551728
 20
2.000335318756087
 30
0.0
 10
9.10555141840881
 20
1.96737487028811
 30
0.0
 10
9.14819566112346
 20
1.940993643416666
 30
0.0
 10
9.169578806974105
 20
1.927765278085248
 30
0.0
  0
SPLINE
  5
89
330
1F
100
AcDbEntity
  8
0
  6
Continuous
 62
     7
370
    25
100
AcDbSpline
210
0.0
220
0.0
230
1.0
 70
    24
 71
     3
 72
     9
 73
     5
 74
     0
 42
0.00000001
 43
0.00000001
 40
0.0
 40
0.0
 40
0.0
 40
0.0
 40
0.5280901206098644
 40
1.0
 40
1.0
 40
1.0
 40
1.0
 10
9.540550269999452
 20
1.457080314960634
 30
0.0
 10
9.550243116491407
 20
1.457080314960634
 30
0.0
 10
9.568597647495997
 20
1.457080314960633
 30
0.0
 10
9.573880998345738
 20
1.457080314960632
 30
0.0
 10
9.576374263808013
 20
1.457080314960632
 30
0.0
  0
SPLINE
  5
8A
330
1F
100
AcDbEntity
  8
0
  6
Continuous
 62
     7
370
    25
100
AcDbSpline
210
0.0
220
0.0
230
1.0
 70
    24
 71
     3
 72
     9
 73
     5
 74
     0
 42
0.00000001
 43
0.00000001
 40
0.0
 40
0.0
 40
0.0
 40
0.0
 40
0.5280901206097824
 40
1.0
 40
1.0
 40
1.0
 40
1.0
 10
9.540550269999454
 20
1.45608031496063
 30
0.0
 10
9.550243116491405
 20
1.456080314960631
 30
0.0
 10
9.568597647495993
 20
1.456080314960631
 30
0.0
 10
9.573880998345736
 20
1.456080314960633
 30
0.0
 10
9.576374263808011
 20
1.456080314960633
 30
0.0
  0
SPLINE
  5
8E
330
1F
100
AcDbEntity
  8
0
  6
Continuous
 62
     7
370
    25
100
AcDbSpline
210
0.0
220
0.0
230
1.0
 70
    24
 71
     3
 72
     9
 73
     5
 74
     0
 42
0.00000001
 43
0.00000001
 40
0.0
 40
0.0
 40
0.0
 40
0.0
 40
0.5824804896282871
 40
0.9999999999999999
 40
0.9999999999999999
 40
0.9999999999999999
 40
0.9999999999999999
 10
9.574873989924445
 20
1.457080314960633
 30
0.0
 10
9.573671180834967
 20
1.457080314960631
 30
0.0
 10
9.571606203362084
 20
1.457080314960628
 30
0.0
 10
9.565426036694653
 20
1.457080314960629
 30
0.0
 10
9.56284569653365
 20
1.45708031496063
 30
0.0
  0
SPLINE
  5
8F
330
1F
100
AcDbEntity
  8
0
  6
Continuous
 62
     7
370
    25
100
AcDbSpline
210
0.0
220
0.0
230
1.0
 70
    24
 71
     3
 72
     9
 73
     5
 74
     0
 42
0.00000001
 43
0.00000001
 40
0.0
 40
0.0
 40
0.0
 40
0.0
 40
0.5824804896283009
 40
1.0
 40
1.0
 40
1.0
 40
1.0
 10
9.574873989924438
 20
1.456080314960634
 30
0.0
 10
9.573671180834962
 20
1.456080314960633
 30
0.0
 10
9.57160620336208
 20
1.45608031496063
 30
0.0
 10
9.565426036694653
 20
1.456080314960631
 30
0.0
 10
9.562845696533653
 20
1.456080314960632
 30
0.0
  0
SPLINE
  5
94
330
1F
100
AcDbEntity
  8
0
  6
Continuous
 62
     7
370
    25
100
AcDbSpline
210
0.0
220
0.0
230
1.0
 70
    24
 71
     3
 72
     9
 73
     5
 74
     0
 42
0.00000001
 43
0.00000001
 40
0.0
 40
0.0
 40
0.0
 40
0.0
 40
0.5649072755393821
 40
0.9999999999999999
 40
0.9999999999999999
 40
0.9999999999999999
 40
0.9999999999999999
 10
9.562845696533648
 20
1.457080314960629
 30
0.0
 10
9.559050342942626
 20
1.457080314960629
 30
0.0
 10
9.552331800351016
 20
1.457080314960628
 30
0.0
 10
9.542722246755035
 20
1.457080314960631
 30
0.0
 10
9.538541199900113
 20
1.457080314960633
 30
0.0
  0
SPLINE
  5
95
330
1F
100
AcDbEntity
  8
0
  6
Continuous
 62
     7
370
    25
100
AcDbSpline
210
0.0
220
0.0
230
1.0
 70
    24
 71
     3
 72
     9
 73
     5
 74
     0
 42
0.00000001
 43
0.00000001
 40
0.0
 40
0.0
 40
0.0
 40
0.0
 40
0.8723652752673412
 40
1.0
 40
1.0
 40
1.0
 40
1.0
 10
9.562845696533653
 20
1.456080314960632
 30
0.0
 10
9.55921771827621
 20
1.456080314960634
 30
0.0
 10
9.555058934839618
 20
1.456080314960636
 30
0.0
 10
9.549028053560159
 20
1.456080314960634
 30
0.0
 10
9.548258303688156
 20
1.456080314960634
 30
0.0
  0
SPLINE
  5
96
330
1F
100
AcDbEntity
  8
0
  6
Continuous
 62
     7
370
    25
100
AcDbSpline
210
0.0
220
0.0
230
1.0
 70
    24
 71
     3
 72
    19
 73
    15
 74
     0
 42
0.00000001
 43
0.00000001
 40
0.0
 40
0.0
 40
0.0
 40
0.0
 40
0.3174172254655124
 40
0.5295265632802817
 40
0.658605226246353
 40
0.7269309754424808
 40
0.7620350240603262
 40
0.7830577305718021
 40
0.8322134267909971
 40
0.8517027804364161
 40
0.8713338705574871
 40
0.9290620121470446
 40
0.9657453866794814
 40
1.0
 40
1.0
 40
1.0
 40
1.0
 10
9.651057859238334
 20
1.457080314960629
 30
0.0
 10
9.650898334227229
 20
1.45708031496063
 30
0.0
 10
9.650632209001152
 20
1.457080314960631
 30
0.0
 10
9.65041351237532
 20
1.457080314960631
 30
0.0
 10
9.650383873248915
 20
1.457080314960631
 30
0.0
 10
9.650493083583195
 20
1.457080314960631
 30
0.0
 10
9.650717456609023
 20
1.457080314960629
 30
0.0
 10
9.651544393535051
 20
1.457080314960628
 30
0.0
 10
9.65215603169936
 20
1.45708031496063
 30
0.0
 10
9.657574974727645
 20
1.457080314960631
 30
0.0
 10
9.669871366392512
 20
1.457080314960629
 30
0.0
 10
9.686234835469675
 20
1.457080314960627
 30
0.0
 10
9.704607055334044
 20
1.457080314960626
 30
0.0
 10
9.713471024894746
 20
1.457080314960626
 30
0.0
 10
9.717751268230888
 20
1.457080314960626
 30
0.0
  0
SPLINE
  5
97
330
1F
100
AcDbEntity
  8
0
  6
Continuous
 62
     7
370
    25
100
AcDbSpline
210
0.0
220
0.0
230
1.0
 70
    24
 71
     3
 72
    19
 73
    15
 74
     0
 42
0.00000001
 43
0.00000001
 40
0.0
 40
0.0
 40
0.0
 40
0.0
 40
0.3174172254655101
 40
0.5295265632802744
 40
0.6586052262463489
 40
0.7269309754424681
 40
0.7620350240603039
 40
0.7830577305717906
 40
0.8322134267910064
 40
0.8517027804364272
 40
0.8713338705574952
 40
0.9290620121470508
 40
0.9657453866794941
 40
0.9999999999999999
 40
0.9999999999999999
 40
0.9999999999999999
 40
0.9999999999999999
 10
9.651057859238339
 20
1.45608031496063
 30
0.0
 10
9.650898334227232
 20
1.45608031496063
 30
0.0
 10
9.65063220900115
 20
1.456080314960629
 30
0.0
 10
9.650413512375323
 20
1.45608031496063
 30
0.0
 10
9.650383873248915
 20
1.45608031496063
 30
0.0
 10
9.65049308358319
 20
1.456080314960631
 30
0.0
 10
9.650717456609026
 20
1.456080314960632
 30
0.0
 10
9.651544393535051
 20
1.456080314960631
 30
0.0
 10
9.652156031699361
 20
1.45608031496063
 30
0.0
 10
9.65757497472764
 20
1.456080314960632
 30
0.0
 10
9.669871366392519
 20
1.456080314960635
 30
0.0
 10
9.68623483546968
 20
1.456080314960633
 30
0.0
 10
9.704607055334039
 20
1.456080314960631
 30
0.0
 10
9.713471024894744
 20
1.45608031496063
 30
0.0
 10
9.717751268230884
 20
1.45608031496063
 30
0.0
  0
SPLINE
  5
9A
330
1F
100
AcDbEntity
  8
0
  6
Continuous
 62
     7
370
    25
100
AcDbSpline
210
0.0
220
0.0
230
1.0
 70
    24
 71
     3
 72
    19
 73
    15
 74
     0
 42
0.00000001
 43
0.00000001
 40
0.0
 40
0.0
 40
0.0
 40
0.0
 40
0.0943752243023526
 40
0.1561490034092637
 40
0.1881700445177329
 40
0.2108792361003287
 40
0.2475421964439726
 40
0.2768060997355345
 40
0.3256445066530841
 40
0.3936284969055838
 40
0.4689069282914003
 40
0.72163057936962
 40
0.7934437045226237
 40
1.0
 40
1.0
 40
1.0
 40
1.0
 10
9.717751268230888
 20
1.456080314960633
 30
0.0
 10
9.714933084547294
 20
1.456080314960633
 30
0.0
 10
9.710270244518355
 20
1.456080314960631
 30
0.0
 10
9.704476939796626
 20
1.456080314960632
 30
0.0
 10
9.700870446329837
 20
1.456080314960631
 30
0.0
 10
9.698142075131756
 20
1.456080314960631
 30
0.0
 10
9.696093756985283
 20
1.456080314960632
 30
0.0
 10
9.693408473934774
 20
1.456080314960631
 30
0.0
 10
9.691662041597468
 20
1.456080314960629
 30
0.0
 10
9.6918316939864
 20
1.456080314960628
 30
0.0
 10
9.69185331306502
 20
1.45608031496063
 30
0.0
 10
9.691736856643194
 20
1.456080314960629
 30
0.0
 10
9.691552260836287
 20
1.456080314960635
 30
0.0
 10
9.69169840428824
 20
1.456080314960633
 30
0.0
 10
9.691806845976897
 20
1.456080314960631
 30
0.0
  0
SPLINE
  5
9B
330
1F
100
AcDbEntity
  8
0
  6
Continuous
 62
     7
370
    25
100
AcDbSpline
210
0.0
220
0.0
230
1.0
 70
    24
 71
     3
 72
    19
 73
    15
 74
     0
 42
0.00000001
 43
0.00000001
 40
0.0
 40
0.0
 40
0.0
 40
0.0
 40
0.0943752243023509
 40
0.1561490034092492
 40
0.1881700445177265
 40
0.2108792361002954
 40
0.2475421964439863
 40
0.2768060997355895
 40
0.325644506653143
 40
0.3936284969055937
 40
0.4689069282913616
 40
0.7216305793695299
 40
0.7934437045225794
 40
1.0
 40
1.0
 40
1.0
 40
1.0
 10
9.717751268230888
 20
1.457080314960633
 30
0.0
 10
9.714933084547294
 20
1.457080314960632
 30
0.0
 10
9.710270244518355
 20
1.457080314960632
 30
0.0
 10
9.704476939796624
 20
1.457080314960633
 30
0.0
 10
9.700870446329839
 20
1.457080314960631
 30
0.0
 10
9.698142075131754
 20
1.457080314960631
 30
0.0
 10
9.69609375698529
 20
1.45708031496063
 30
0.0
 10
9.693408473934774
 20
1.45708031496063
 30
0.0
 10
9.691662041597473
 20
1.457080314960633
 30
0.0
 10
9.6918316939864
 20
1.457080314960632
 30
0.0
 10
9.69185331306503
 20
1.457080314960628
 30
0.0
 10
9.691736856643196
 20
1.457080314960633
 30
0.0
 10
9.691552260836286
 20
1.457080314960629
 30
0.0
 10
9.691698404288246
 20
1.457080314960631
 30
0.0
 10
9.691806845976904
 20
1.457080314960632
 30
0.0
  0
SPLINE
  5
A3
330
1F
100
AcDbEntity
  8
0
  6
Continuous
 62
     7
370
    25
100
AcDbSpline
210
0.0
220
0.0
230
1.0
 70
    24
 71
     3
 72
    10
 73
     6
 74
     0
 42
0.00000001
 43
0.00000001
 40
0.0
 40
0.0
 40
0.0
 40
0.0
 40
0.2180499606615438
 40
0.4717217995800521
 40
1.0
 40
1.0
 40
1.0
 40
1.0
 10
9.821557356194155
 20
1.457080314960632
 30
0.0
 10
9.827609265925018
 20
1.457080314960632
 30
0.0
 10
9.84070175968414
 20
1.457080314960633
 30
0.0
 10
9.869263653685554
 20
1.457080314960634
 30
0.0
 10
9.890746262918139
 20
1.457080314960635
 30
0.0
 10
9.905259714641113
 20
1.457080314960636
 30
0.0
  0
SPLINE
  5
A4
330
1F
100
AcDbEntity
  8
0
  6
Continuous
 62
     7
370
    25
100
AcDbSpline
210
0.0
220
0.0
230
1.0
 70
    24
 71
     3
 72
    12
 73
     8
 74
     0
 42
0.00000001
 43
0.00000001
 40
0.0
 40
0.0
 40
0.0
 40
0.0
 40
0.1661378630748587
 40
0.342290036135832
 40
0.5508389476144092
 40
0.7968690404825782
 40
1.0
 40
1.0
 40
1.0
 40
1.0
 10
9.955864726846421
 20
1.457080314960633
 30
0.0
 10
9.958505896141643
 20
1.457080314960631
 30
0.0
 10
9.963947436780074
 20
1.457080314960629
 30
0.0
 10
9.974858723327106
 20
1.457080314960632
 30
0.0
 10
9.9874750319702
 20
1.45708031496063
 30
0.0
 10
10.00077821614033
 20
1.457080314960628
 30
0.0
 10
10.00901827113351
 20
1.45708031496063
 30
0.0
 10
10.012744796994
 20
1.457080314960632
 30
0.0
  0
SPLINE
  5
A5
330
1F
100
AcDbEntity
  8
0
  6
Continuous
 62
     7
370
    25
100
AcDbSpline
210
0.0
220
0.0
230
1.0
 70
    24
 71
     3
 72
    12
 73
     8
 74
     0
 42
0.00000001
 43
0.00000001
 40
0.0
 40
0.0
 40
0.0
 40
0.0
 40
0.1661378630746794
 40
0.3422900361356717
 40
0.5508389476143183
 40
0.7968690404825525
 40
1.0
 40
1.0
 40
1.0
 40
1.0
 10
9.955864726846434
 20
1.456080314960633
 30
0.0
 10
9.958505896141652
 20
1.456080314960633
 30
0.0
 10
9.963947436780073
 20
1.45608031496063
 30
0.0
 10
9.974858723327099
 20
1.456080314960627
 30
0.0
 10
9.9874750319702
 20
1.456080314960625
 30
0.0
 10
10.00077821614033
 20
1.456080314960631
 30
0.0
 10
10.00901827113351
 20
1.456080314960629
 30
0.0
 10
10.012744796994
 20
1.456080314960629
 30
0.0
  0
SPLINE
  5
A6
330
1F
100
AcDbEntity
  8
0
  6
Continuous
 62
     7
370
    25
100
AcDbSpline
210
0.0
220
0.0
230
1.0
 70
    24
 71
     3
 72
    10
 73
     6
 74
     0
 42
0.00000001
 43
0.00000001
 40
0.0
 40
0.0
 40
0.0
 40
0.0
 40
0.2180499606615345
 40
0.4717217995800978
 40
1.0
 40
1.0
 40
1.0
 40
1.0
 10
9.821557356194155
 20
1.456080314960627
 30
0.0
 10
9.827609265925018
 20
1.456080314960629
 30
0.0
 10
9.84070175968414
 20
1.456080314960633
 30
0.0
 10
9.86926365368555
 20
1.45608031496063
 30
0.0
 10
9.89074626291814
 20
1.456080314960631
 30
0.0
 10
9.905259714641115
 20
1.456080314960631
 30
0.0
  0
SPLINE
  5
A7
330
1F
100
AcDbEntity
  8
0
  6
Continuous
 62
     7
370
    25
100
AcDbSpline
210
0.0
220
0.0
230
1.0
 70
    24
 71
     3
 72
     9
 73
     5
 74
     0
 42
0.00000001
 43
0.00000001
 40
0.0
 40
0.0
 40
0.0
 40
0.0
 40
0.5434172675489259
 40
0.9999999999999999
 40
0.9999999999999999
 40
0.9999999999999999
 40
0.9999999999999999
 10
9.794252286910433
 20
1.456080314960626
 30
0.0
 10
9.798882829785423
 20
1.456080314960627
 30
0.0
 10
9.807403984985143
 20
1.456080314960631
 30
0.0
 10
9.817120818017479
 20
1.456080314960628
 30
0.0
 10
9.821557356194155
 20
1.456080314960627
 30
0.0
  0
SPLINE
  5
A9
330
1F
100
AcDbEntity
  8
0
  6
Continuous
 62
     7
370
    25
100
AcDbSpline
210
0.0
220
0.0
230
1.0
 70
    24
 71
     3
 72
     9
 73
     5
 74
     0
 42
0.00000001
 43
0.00000001
 40
0.0
 40
0.0
 40
0.0
 40
0.0
 40
0.5434172675488492
 40
1.0
 40
1.0
 40
1.0
 40
1.0
 10
9.794252286910432
 20
1.457080314960634
 30
0.0
 10
9.798882829785423
 20
1.457080314960633
 30
0.0
 10
9.807403984985143
 20
1.45708031496063
 30
0.0
 10
9.81712081801748
 20
1.457080314960631
 30
0.0
 10
9.821557356194155
 20
1.457080314960632
 30
0.0
  0
SPLINE
  5
AB
330
1F
100
AcDbEntity
  8
0
  6
Continuous
 62
     7
370
    25
100
AcDbSpline
210
0.0
220
0.0
230
1.0
 70
    24
 71
     3
 72
     9
 73
     5
 74
     0
 42
0.00000001
 43
0.00000001
 40
0.0
 40
0.0
 40
0.0
 40
0.0
 40
0.6184111159092954
 40
0.9999999999999999
 40
0.9999999999999999
 40
0.9999999999999999
 40
0.9999999999999999
 10
9.94609335119923
 20
1.45608031496063
 30
0.0
 10
9.946311388402995
 20
1.45608031496063
 30
0.0
 10
9.946663964865737
 20
1.456080314960631
 30
0.0
 10
9.953323516116216
 20
1.456080314960633
 30
0.0
 10
9.955864726846434
 20
1.456080314960633
 30
0.0
  0
SPLINE
  5
AD
330
1F
100
AcDbEntity
  8
0
  6
Continuous
 62
     7
370
    25
100
AcDbSpline
210
0.0
220
0.0
230
1.0
 70
    24
 71
     3
 72
     9
 73
     5
 74
     0
 42
0.00000001
 43
0.00000001
 40
0.0
 40
0.0
 40
0.0
 40
0.0
 40
0.6184111159093862
 40
1.0
 40
1.0
 40
1.0
 40
1.0
 10
9.94609335119924
 20
1.457080314960629
 30
0.0
 10
9.946311388403
 20
1.457080314960628
 30
0.0
 10
9.94666396486573
 20
1.457080314960625
 30
0.0
 10
9.953323516116209
 20
1.457080314960631
 30
0.0
 10
9.955864726846421
 20
1.457080314960633
 30
0.0
  0
SPLINE
  5
AF
330
1F
100
AcDbEntity
  8
0
  6
Continuous
 62
     7
370
    25
100
AcDbSpline
210
0.0
220
0.0
230
1.0
 70
    24
 71
     3
 72
     9
 73
     5
 74
     0
 42
0.00000001
 43
0.00000001
 40
0.0
 40
0.0
 40
0.0
 40
0.0
 40
0.5476778014878269
 40
1.0
 40
1.0
 40
1.0
 40
1.0
 10
9.905259714641115
 20
1.456080314960631
 30
0.0
 10
9.913742351495545
 20
1.456080314960632
 30
0.0
 10
9.929230722270086
 20
1.456080314960634
 30
0.0
 10
9.940841526640094
 20
1.456080314960631
 30
0.0
 10
9.946093351199233
 20
1.45608031496063
 30
0.0
  0
SPLINE
  5
B1
330
1F
100
AcDbEntity
  8
0
  6
Continuous
 62
     7
370
    25
100
AcDbSpline
210
0.0
220
0.0
230
1.0
 70
    24
 71
     3
 72
     9
 73
     5
 74
     0
 42
0.00000001
 43
0.00000001
 40
0.0
 40
0.0
 40
0.0
 40
0.0
 40
0.5476778014876019
 40
1.0
 40
1.0
 40
1.0
 40
1.0
 10
9.905259714641113
 20
1.457080314960636
 30
0.0
 10
9.913742351495541
 20
1.457080314960634
 30
0.0
 10
9.929230722270093
 20
1.457080314960631
 30
0.0
 10
9.940841526640101
 20
1.45708031496063
 30
0.0
 10
9.94609335119924
 20
1.457080314960629
 30
0.0
  0
SPLINE
  5
B3
330
1F
100
AcDbEntity
  8
0
  6
Continuous
 62
     7
370
    25
100
AcDbSpline
210
0.0
220
0.0
230
1.0
 70
    24
 71
     3
 72
     9
 73
     5
 74
     0
 42
0.00000001
 43
0.00000001
 40
0.0
 40
0.0
 40
0.0
 40
0.0
 40
0.5681470810217674
 40
0.9999999999999999
 40
0.9999999999999999
 40
0.9999999999999999
 40
0.9999999999999999
 10
9.775961949413857
 20
1.456080314960637
 30
0.0
 10
9.778695889948308
 20
1.456080314960635
 30
0.0
 10
9.78350791948392
 20
1.456080314960631
 30
0.0
 10
9.791011740081766
 20
1.456080314960627
 30
0.0
 10
9.794252286910433
 20
1.456080314960626
 30
0.0
  0
SPLINE
  5
B4
330
1F
100
AcDbEntity
  8
0
  6
Continuous
 62
     7
370
    25
100
AcDbSpline
210
0.0
220
0.0
230
1.0
 70
    24
 71
     3
 72
     9
 73
     5
 74
     0
 42
0.00000001
 43
0.00000001
 40
0.0
 40
0.0
 40
0.0
 40
0.0
 40
0.5681470810219371
 40
1.0
 40
1.0
 40
1.0
 40
1.0
 10
9.775961949413858
 20
1.457080314960636
 30
0.0
 10
9.77869588994831
 20
1.457080314960633
 30
0.0
 10
9.783507919483926
 20
1.457080314960628
 30
0.0
 10
9.791011740081766
 20
1.457080314960632
 30
0.0
 10
9.794252286910432
 20
1.457080314960634
 30
0.0
  0
SPLINE
  5
B6
330
1F
100
AcDbEntity
  8
0
  6
Continuous
 62
     7
370
    25
100
AcDbSpline
210
0.0
220
0.0
230
1.0
 70
    24
 71
     3
 72
    13
 73
     9
 74
     0
 42
0.00000001
 43
0.00000001
 40
0.0
 40
0.0
 40
0.0
 40
0.0
 40
0.2556246604485363
 40
0.4704360446354303
 40
0.6316238936074062
 40
0.7636896867094357
 40
0.8801877457658935
 40
1.0
 40
1.0
 40
1.0
 40
1.0
 10
10.01274479699399
 20
1.45708031496063
 30
0.0
 10
10.01041831317981
 20
1.45708031496063
 30
0.0
 10
10.00613679416857
 20
1.457080314960628
 30
0.0
 10
10.00023214737146
 20
1.457080314960632
 30
0.0
 10
9.995458285497671
 20
1.457080314960631
 30
0.0
 10
9.991789963931176
 20
1.45708031496063
 30
0.0
 10
9.989060380404682
 20
1.45708031496063
 30
0.0
 10
9.988311306386572
 20
1.457080314960631
 30
0.0
 10
9.987931516586253
 20
1.457080314960632
 30
0.0
  0
SPLINE
  5
B8
330
1F
100
AcDbEntity
  8
0
  6
Continuous
 62
     7
370
    25
100
AcDbSpline
210
0.0
220
0.0
230
1.0
 70
    24
 71
     3
 72
    10
 73
     6
 74
     0
 42
0.00000001
 43
0.00000001
 40
0.0
 40
0.0
 40
0.0
 40
0.0
 40
0.2698648447693014
 40
0.5858087575089685
 40
0.9999999999999999
 40
0.9999999999999999
 40
0.9999999999999999
 40
0.9999999999999999
 10
9.776718643039988
 20
1.456080314960633
 30
0.0
 10
9.774391461307172
 20
1.456080314960633
 30
0.0
 10
9.769339734615738
 20
1.45608031496063
 30
0.0
 10
9.768035856815576
 20
1.456080314960625
 30
0.0
 10
9.773093084247487
 20
1.456080314960633
 30
0.0
 10
9.775961949413857
 20
1.456080314960637
 30
0.0
  0
SPLINE
  5
B9
330
1F
100
AcDbEntity
  8
0
  6
Continuous
 62
     7
370
    25
100
AcDbSpline
210
0.0
220
0.0
230
1.0
 70
    24
 71
     3
 72
    10
 73
     6
 74
     0
 42
0.00000001
 43
0.00000001
 40
0.0
 40
0.0
 40
0.0
 40
0.0
 40
0.2698648447694905
 40
0.5858087575090064
 40
1.0
 40
1.0
 40
1.0
 40
1.0
 10
9.776718643039985
 20
1.45708031496063
 30
0.0
 10
9.774391461307166
 20
1.457080314960632
 30
0.0
 10
9.769339734615743
 20
1.457080314960634
 30
0.0
 10
9.76803585681558
 20
1.457080314960635
 30
0.0
 10
9.77309308424749
 20
1.457080314960636
 30
0.0
 10
9.775961949413858
 20
1.457080314960636
 30
0.0
  0
SPLINE
  5
BB
330
1F
100
AcDbEntity
  8
0
  6
Continuous
 62
     7
370
    25
100
AcDbSpline
210
0.0
220
0.0
230
1.0
 70
    24
 71
     3
 72
     9
 73
     5
 74
     0
 42
0.00000001
 43
0.00000001
 40
0.0
 40
0.0
 40
0.0
 40
0.0
 40
0.5432306318228769
 40
1.0
 40
1.0
 40
1.0
 40
1.0
 10
9.829580548105804
 20
1.45608031496063
 30
0.0
 10
9.832284804999633
 20
1.456080314960631
 30
0.0
 10
9.837262905893448
 20
1.456080314960632
 30
0.0
 10
9.842825318373047
 20
1.456080314960632
 30
0.0
 10
9.845366058006894
 20
1.456080314960632
 30
0.0
  0
SPLINE
  5
BC
330
1F
100
AcDbEntity
  8
0
  6
Continuous
 62
     7
370
    25
100
AcDbSpline
210
0.0
220
0.0
230
1.0
 70
    24
 71
     3
 72
     9
 73
     5
 74
     0
 42
0.00000001
 43
0.00000001
 40
0.0
 40
0.0
 40
0.0
 40
0.0
 40
0.5432306318227182
 40
1.0
 40
1.0
 40
1.0
 40
1.0
 10
9.829580548105808
 20
1.457080314960634
 30
0.0
 10
9.832284804999635
 20
1.457080314960634
 30
0.0
 10
9.837262905893452
 20
1.457080314960633
 30
0.0
 10
9.842825318373048
 20
1.45708031496063
 30
0.0
 10
9.845366058006896
 20
1.457080314960628
 30
0.0
  0
SPLINE
  5
BE
330
1F
100
AcDbEntity
  8
0
  6
Continuous
 62
     7
370
    25
100
AcDbSpline
210
0.0
220
0.0
230
1.0
 70
    24
 71
     3
 72
     9
 73
     5
 74
     0
 42
0.00000001
 43
0.00000001
 40
0.0
 40
0.0
 40
0.0
 40
0.0
 40
0.587196081076961
 40
1.0
 40
1.0
 40
1.0
 40
1.0
 10
9.900484955465517
 20
1.456080314960634
 30
0.0
 10
9.905687490553202
 20
1.456080314960634
 30
0.0
 10
9.914547452762326
 20
1.456080314960633
 30
0.0
 10
9.921981533317568
 20
1.456080314960631
 30
0.0
 10
9.92505035090436
 20
1.456080314960629
 30
0.0
  0
SPLINE
  5
BF
330
1F
100
AcDbEntity
  8
0
  6
Continuous
 62
     7
370
    25
100
AcDbSpline
210
0.0
220
0.0
230
1.0
 70
    24
 71
     3
 72
     9
 73
     5
 74
     0
 42
0.00000001
 43
0.00000001
 40
0.0
 40
0.0
 40
0.0
 40
0.0
 40
0.5871960810769825
 40
1.0
 40
1.0
 40
1.0
 40
1.0
 10
9.900484955465513
 20
1.457080314960628
 30
0.0
 10
9.905687490553202
 20
1.45708031496063
 30
0.0
 10
9.914547452762328
 20
1.457080314960633
 30
0.0
 10
9.92198153331757
 20
1.457080314960628
 30
0.0
 10
9.925050350904366
 20
1.457080314960627
 30
0.0
  0
SPLINE
  5
C1
330
1F
100
AcDbEntity
  8
0
  6
Continuous
 62
     7
370
    25
100
AcDbSpline
210
0.0
220
0.0
230
1.0
 70
    24
 71
     3
 72
     9
 73
     5
 74
     0
 42
0.00000001
 43
0.00000001
 40
0.0
 40
0.0
 40
0.0
 40
0.0
 40
0.4725573283197046
 40
1.0
 40
1.0
 40
1.0
 40
1.0
 10
9.987931516586256
 20
1.457080314960632
 30
0.0
 10
9.987377942663388
 20
1.457080314960631
 30
0.0
 10
9.98620649977235
 20
1.457080314960631
 30
0.0
 10
9.986199901530595
 20
1.457080314960629
 30
0.0
 10
9.98619642133634
 20
1.457080314960628
 30
0.0
  0
SPLINE
  5
C3
330
1F
100
AcDbEntity
  8
0
  6
Continuous
 62
     7
370
    25
100
AcDbSpline
210
0.0
220
0.0
230
1.0
 70
    24
 71
     3
 72
     9
 73
     5
 74
     0
 42
0.00000001
 43
0.00000001
 40
0.0
 40
0.0
 40
0.0
 40
0.0
 40
0.5634395168704215
 40
1.0
 40
1.0
 40
1.0
 40
1.0
 10
9.81855680842696
 20
1.456080314960634
 30
0.0
 10
9.820265385381958
 20
1.456080314960633
 30
0.0
 10
9.823297790642574
 20
1.456080314960628
 30
0.0
 10
9.827671262930732
 20
1.456080314960629
 30
0.0
 10
9.829580548105804
 20
1.45608031496063
 30
0.0
  0
SPLINE
  5
C5
330
1F
100
AcDbEntity
  8
0
  6
Continuous
 62
     7
370
    25
100
AcDbSpline
210
0.0
220
0.0
230
1.0
 70
    24
 71
     3
 72
     9
 73
     5
 74
     0
 42
0.00000001
 43
0.00000001
 40
0.0
 40
0.0
 40
0.0
 40
0.0
 40
0.5780216235237622
 40
1.0
 40
1.0
 40
1.0
 40
1.0
 10
9.92505035090436
 20
1.456080314960629
 30
0.0
 10
9.928304006559527
 20
1.45608031496063
 30
0.0
 10
9.933932958008318
 20
1.456080314960631
 30
0.0
 10
9.9375488569511
 20
1.456080314960633
 30
0.0
 10
9.939074688116477
 20
1.456080314960635
 30
0.0
  0
SPLINE
  5
C6
330
1F
100
AcDbEntity
  8
0
  6
Continuous
 62
     7
370
    25
100
AcDbSpline
210
0.0
220
0.0
230
1.0
 70
    24
 71
     3
 72
     9
 73
     5
 74
     0
 42
0.00000001
 43
0.00000001
 40
0.0
 40
0.0
 40
0.0
 40
0.0
 40
0.5780216235235777
 40
1.0
 40
1.0
 40
1.0
 40
1.0
 10
9.925050350904366
 20
1.457080314960627
 30
0.0
 10
9.928304006559532
 20
1.457080314960629
 30
0.0
 10
9.933932958008324
 20
1.457080314960632
 30
0.0
 10
9.937548856951095
 20
1.457080314960633
 30
0.0
 10
9.939074688116472
 20
1.457080314960634
 30
0.0
  0
SPLINE
  5
C8
330
1F
100
AcDbEntity
  8
0
  6
Continuous
 62
     7
370
    25
100
AcDbSpline
210
0.0
220
0.0
230
1.0
 70
    24
 71
     3
 72
    11
 73
     7
 74
     0
 42
0.00000001
 43
0.00000001
 40
0.0
 40
0.0
 40
0.0
 40
0.0
 40
0.3060817330558926
 40
0.6456622154520861
 40
0.8312915283117867
 40
1.0
 40
1.0
 40
1.0
 40
1.0
 10
9.821557356194155
 20
1.45608031496063
 30
0.0
 10
9.819276937011354
 20
1.456080314960631
 30
0.0
 10
9.814466520894632
 20
1.456080314960631
 30
0.0
 10
9.813948331800274
 20
1.456080314960629
 30
0.0
 10
9.815135189794859
 20
1.456080314960633
 30
0.0
 10
9.81745316597997
 20
1.456080314960634
 30
0.0
 10
9.81855680842696
 20
1.456080314960634
 30
0.0
  0
SPLINE
  5
C9
330
1F
100
AcDbEntity
  8
0
  6
Continuous
 62
     7
370
    25
100
AcDbSpline
210
0.0
220
0.0
230
1.0
 70
    24
 71
     3
 72
    11
 73
     7
 74
     0
 42
0.00000001
 43
0.00000001
 40
0.0
 40
0.0
 40
0.0
 40
0.0
 40
0.3060817330558975
 40
0.6456622154520979
 40
0.8312915283117195
 40
1.0
 40
1.0
 40
1.0
 40
1.0
 10
9.82155735619416
 20
1.457080314960629
 30
0.0
 10
9.819276937011358
 20
1.457080314960629
 30
0.0
 10
9.81446652089463
 20
1.457080314960629
 30
0.0
 10
9.81394833180027
 20
1.457080314960629
 30
0.0
 10
9.815135189794866
 20
1.457080314960632
 30
0.0
 10
9.817453165979972
 20
1.457080314960626
 30
0.0
 10
9.81855680842696
 20
1.457080314960624
 30
0.0
  0
SPLINE
  5
CC
330
1F
100
AcDbEntity
  8
0
  6
Continuous
 62
     7
370
    25
100
AcDbSpline
210
0.0
220
0.0
230
1.0
 70
    24
 71
     3
 72
     9
 73
     5
 74
     0
 42
0.00000001
 43
0.00000001
 40
0.0
 40
0.0
 40
0.0
 40
0.0
 40
0.5874425447068498
 40
1.0
 40
1.0
 40
1.0
 40
1.0
 10
9.939074688116476
 20
1.456080314960634
 30
0.0
 10
9.94052337651066
 20
1.456080314960633
 30
0.0
 10
9.942989470271215
 20
1.456080314960631
 30
0.0
 10
9.943413596805923
 20
1.456080314960628
 30
0.0
 10
9.943588573369803
 20
1.456080314960627
 30
0.0
  0
SPLINE
  5
CD
330
1F
100
AcDbEntity
  8
0
  6
Continuous
 62
     7
370
    25
100
AcDbSpline
210
0.0
220
0.0
230
1.0
 70
    24
 71
     3
 72
     9
 73
     5
 74
     0
 42
0.00000001
 43
0.00000001
 40
0.0
 40
0.0
 40
0.0
 40
0.0
 40
0.5874425447067845
 40
1.0
 40
1.0
 40
1.0
 40
1.0
 10
9.939074688116472
 20
1.457080314960634
 30
0.0
 10
9.940523376510658
 20
1.457080314960633
 30
0.0
 10
9.94298947027121
 20
1.457080314960632
 30
0.0
 10
9.943413596805916
 20
1.457080314960628
 30
0.0
 10
9.9435885733698
 20
1.457080314960627
 30
0.0
  0
SPLINE
  5
D0
330
1F
100
AcDbEntity
  8
0
  6
Continuous
 62
     7
370
    25
100
AcDbSpline
210
0.0
220
0.0
230
1.0
 70
    24
 71
     3
 72
     9
 73
     5
 74
     0
 42
0.00000001
 43
0.00000001
 40
0.0
 40
0.0
 40
0.0
 40
0.0
 40
0.5675477684836687
 40
1.0
 40
1.0
 40
1.0
 40
1.0
 10
9.8403564525819
 20
1.456080314960627
 30
0.0
 10
9.836300784549117
 20
1.456080314960628
 30
0.0
 10
9.829154834449406
 20
1.456080314960631
 30
0.0
 10
9.823851007844864
 20
1.45608031496063
 30
0.0
 10
9.821557356194155
 20
1.45608031496063
 30
0.0
  0
SPLINE
  5
D1
330
1F
100
AcDbEntity
  8
0
  6
Continuous
 62
     7
370
    25
100
AcDbSpline
210
0.0
220
0.0
230
1.0
 70
    24
 71
     3
 72
     9
 73
     5
 74
     0
 42
0.00000001
 43
0.00000001
 40
0.0
 40
0.0
 40
0.0
 40
0.0
 40
0.5675477684837134
 40
1.0
 40
1.0
 40
1.0
 40
1.0
 10
9.8403564525819
 20
1.457080314960633
 30
0.0
 10
9.836300784549115
 20
1.457080314960632
 30
0.0
 10
9.829154834449412
 20
1.457080314960632
 30
0.0
 10
9.82385100784487
 20
1.45708031496063
 30
0.0
 10
9.82155735619416
 20
1.457080314960629
 30
0.0
  0
SPLINE
  5
D3
330
1F
100
AcDbEntity
  8
0
  6
Continuous
 62
     7
370
    25
100
AcDbSpline
210
0.0
220
0.0
230
1.0
 70
    24
 71
     3
 72
     9
 73
     5
 74
     0
 42
0.00000001
 43
0.00000001
 40
0.0
 40
0.0
 40
0.0
 40
0.0
 40
0.5523899843228605
 40
0.9999999999999999
 40
0.9999999999999999
 40
0.9999999999999999
 40
0.9999999999999999
 10
9.796509229537056
 20
1.456080314960632
 30
0.0
 10
9.792150062817013
 20
1.456080314960631
 30
0.0
 10
9.7842585969256
 20
1.45608031496063
 30
0.0
 10
9.779050043652303
 20
1.456080314960633
 30
0.0
 10
9.77671864303999
 20
1.456080314960634
 30
0.0
  0
SPLINE
  5
D4
330
1F
100
AcDbEntity
  8
0
  6
Continuous
 62
     7
370
    25
100
AcDbSpline
210
0.0
220
0.0
230
1.0
 70
    24
 71
     3
 72
     9
 73
     5
 74
     0
 42
0.00000001
 43
0.00000001
 40
0.0
 40
0.0
 40
0.0
 40
0.0
 40
0.5523899843231272
 40
1.0
 40
1.0
 40
1.0
 40
1.0
 10
9.796509229537056
 20
1.457080314960629
 30
0.0
 10
9.792150062817017
 20
1.45708031496063
 30
0.0
 10
9.784258596925607
 20
1.45708031496063
 30
0.0
 10
9.779050043652303
 20
1.45708031496063
 30
0.0
 10
9.776718643039985
 20
1.45708031496063
 30
0.0
  0
SPLINE
  5
D6
330
1F
100
AcDbEntity
  8
0
  6
Continuous
 62
     7
370
    25
100
AcDbSpline
210
0.0
220
0.0
230
1.0
 70
    24
 71
     3
 72
     9
 73
     5
 74
     0
 42
0.00000001
 43
0.00000001
 40
0.0
 40
0.0
 40
0.0
 40
0.0
 40
0.5793588064192425
 40
1.0
 40
1.0
 40
1.0
 40
1.0
 10
9.866409108067874
 20
1.45608031496063
 30
0.0
 10
9.861246354332094
 20
1.456080314960631
 30
0.0
 10
9.852335203455338
 20
1.456080314960633
 30
0.0
 10
9.843903270798759
 20
1.456080314960629
 30
0.0
 10
9.8403564525819
 20
1.456080314960627
 30
0.0
  0
SPLINE
  5
D8
330
1F
100
AcDbEntity
  8
0
  6
Continuous
 62
     7
370
    25
100
AcDbSpline
210
0.0
220
0.0
230
1.0
 70
    24
 71
     3
 72
     9
 73
     5
 74
     0
 42
0.00000001
 43
0.00000001
 40
0.0
 40
0.0
 40
0.0
 40
0.0
 40
0.5573103616105785
 40
0.9999999999999999
 40
0.9999999999999999
 40
0.9999999999999999
 40
0.9999999999999999
 10
9.895227465071686
 20
1.45708031496063
 30
0.0
 10
9.889865927474519
 20
1.457080314960631
 30
0.0
 10
9.880245547222351
 20
1.457080314960632
 30
0.0
 10
9.870654822518784
 20
1.45708031496063
 30
0.0
 10
9.86640910806787
 20
1.45708031496063
 30
0.0
  0
SPLINE
  5
DB
330
1F
100
AcDbEntity
  8
0
  6
Continuous
 62
     7
370
    25
100
AcDbSpline
210
0.0
220
0.0
230
1.0
 70
    24
 71
     3
 72
    10
 73
     6
 74
     0
 42
0.00000001
 43
0.00000001
 40
0.0
 40
0.0
 40
0.0
 40
0.0
 40
0.2368627050430031
 40
0.5161858454676761
 40
1.0
 40
1.0
 40
1.0
 40
1.0
 10
9.94358857336981
 20
1.45608031496063
 30
0.0
 10
9.940149992670573
 20
1.45608031496063
 30
0.0
 10
9.932656425098925
 20
1.456080314960631
 30
0.0
 10
9.915989768028734
 20
1.456080314960625
 30
0.0
 10
9.903283188536633
 20
1.456080314960628
 30
0.0
 10
9.895227465071677
 20
1.45608031496063
 30
0.0
  0
SPLINE
  5
DC
330
1F
100
AcDbEntity
  8
0
  6
Continuous
 62
     7
370
    25
100
AcDbSpline
210
0.0
220
0.0
230
1.0
 70
    24
 71
     3
 72
    10
 73
     6
 74
     0
 42
0.00000001
 43
0.00000001
 40
0.0
 40
0.0
 40
0.0
 40
0.0
 40
0.2368627050428452
 40
0.5161858454676597
 40
1.0
 40
1.0
 40
1.0
 40
1.0
 10
9.9435885733698
 20
1.457080314960624
 30
0.0
 10
9.940149992670566
 20
1.457080314960628
 30
0.0
 10
9.932656425098912
 20
1.457080314960635
 30
0.0
 10
9.915989768028743
 20
1.457080314960628
 30
0.0
 10
9.903283188536642
 20
1.45708031496063
 30
0.0
 10
9.895227465071688
 20
1.457080314960631
 30
0.0
  0
SPLINE
  5
DE
330
1F
100
AcDbEntity
  8
0
  6
Continuous
 62
     7
370
    25
100
AcDbSpline
210
0.0
220
0.0
230
1.0
 70
    24
 71
     3
 72
     9
 73
     5
 74
     0
 42
0.00000001
 43
0.00000001
 40
0.0
 40
0.0
 40
0.0
 40
0.0
 40
0.5701777210889495
 40
1.0
 40
1.0
 40
1.0
 40
1.0
 10
9.824570942680845
 20
1.45608031496063
 30
0.0
 10
9.818917709165683
 20
1.456080314960631
 30
0.0
 10
9.809002846998908
 20
1.456080314960631
 30
0.0
 10
9.800264965622931
 20
1.456080314960632
 30
0.0
 10
9.796509229537056
 20
1.456080314960632
 30
0.0
  0
SPLINE
  5
DF
330
1F
100
AcDbEntity
  8
0
  6
Continuous
 62
     7
370
    25
100
AcDbSpline
210
0.0
220
0.0
230
1.0
 70
    24
 71
     3
 72
     9
 73
     5
 74
     0
 42
0.00000001
 43
0.00000001
 40
0.0
 40
0.0
 40
0.0
 40
0.0
 40
0.5701777210890102
 40
1.0
 40
1.0
 40
1.0
 40
1.0
 10
9.82457094268084
 20
1.457080314960632
 30
0.0
 10
9.818917709165682
 20
1.457080314960633
 30
0.0
 10
9.809002846998915
 20
1.457080314960634
 30
0.0
 10
9.800264965622935
 20
1.45708031496063
 30
0.0
 10
9.796509229537056
 20
1.457080314960629
 30
0.0
  0
SPLINE
  5
E1
330
1F
100
AcDbEntity
  8
0
  6
Continuous
 62
     7
370
    25
100
AcDbSpline
210
0.0
220
0.0
230
1.0
 70
    24
 71
     3
 72
     9
 73
     5
 74
     0
 42
0.00000001
 43
0.00000001
 40
0.0
 40
0.0
 40
0.0
 40
0.0
 40
0.5626756597586928
 40
0.9999999999999999
 40
0.9999999999999999
 40
0.9999999999999999
 40
0.9999999999999999
 10
9.856885617389558
 20
1.457080314960634
 30
0.0
 10
9.85077424811888
 20
1.457080314960633
 30
0.0
 10
9.839912983437024
 20
1.457080314960632
 30
0.0
 10
9.829238955086812
 20
1.457080314960632
 30
0.0
 10
9.824570942680838
 20
1.457080314960632
 30
0.0
  0
SPLINE
  5
E3
330
1F
100
AcDbEntity
  8
0
  6
Continuous
 62
     7
370
    25
100
AcDbSpline
210
0.0
220
0.0
230
1.0
 70
    24
 71
     3
 72
     9
 73
     5
 74
     0
 42
0.00000001
 43
0.00000001
 40
0.0
 40
0.0
 40
0.0
 40
0.0
 40
0.5451588152029345
 40
1.0
 40
1.0
 40
1.0
 40
1.0
 10
9.89021780988061
 20
1.456080314960632
 30
0.0
 10
9.884130788765605
 20
1.456080314960633
 30
0.0
 10
9.872965196381784
 20
1.456080314960634
 30
0.0
 10
9.86191273295123
 20
1.456080314960632
 30
0.0
 10
9.856885617389551
 20
1.456080314960631
 30
0.0
  0
SPLINE
  5
E4
330
1F
100
AcDbEntity
  8
0
  6
Continuous
 62
     7
370
    25
100
AcDbSpline
210
0.0
220
0.0
230
1.0
 70
    24
 71
     3
 72
     9
 73
     5
 74
     0
 42
0.00000001
 43
0.00000001
 40
0.0
 40
0.0
 40
0.0
 40
0.0
 40
0.5451588152028889
 40
1.0
 40
1.0
 40
1.0
 40
1.0
 10
9.890217809880612
 20
1.457080314960632
 30
0.0
 10
9.884130788765612
 20
1.457080314960633
 30
0.0
 10
9.87296519638179
 20
1.457080314960637
 30
0.0
 10
9.861912732951236
 20
1.457080314960634
 30
0.0
 10
9.856885617389558
 20
1.457080314960634
 30
0.0
  0
SPLINE
  5
E6
330
1F
100
AcDbEntity
  8
0
  6
Continuous
 62
     7
370
    25
100
AcDbSpline
210
0.0
220
0.0
230
1.0
 70
    24
 71
     3
 72
     9
 73
     5
 74
     0
 42
0.00000001
 43
0.00000001
 40
0.0
 40
0.0
 40
0.0
 40
0.0
 40
0.5298952569125451
 40
0.9999999999999999
 40
0.9999999999999999
 40
0.9999999999999999
 40
0.9999999999999999
 10
9.918031638055485
 20
1.456080314960633
 30
0.0
 10
9.91316735717761
 20
1.456080314960632
 30
0.0
 10
9.903987654558232
 20
1.456080314960631
 30
0.0
 10
9.894621080684928
 20
1.456080314960631
 30
0.0
 10
9.89021780988061
 20
1.456080314960632
 30
0.0
  0
SPLINE
  5
E7
330
1F
100
AcDbEntity
  8
0
  6
Continuous
 62
     7
370
    25
100
AcDbSpline
210
0.0
220
0.0
230
1.0
 70
    24
 71
     3
 72
     9
 73
     5
 74
     0
 42
0.00000001
 43
0.00000001
 40
0.0
 40
0.0
 40
0.0
 40
0.0
 40
0.5298952569123805
 40
1.0
 40
1.0
 40
1.0
 40
1.0
 10
9.91803163805548
 20
1.457080314960627
 30
0.0
 10
9.913167357177608
 20
1.45708031496063
 30
0.0
 10
9.903987654558234
 20
1.457080314960634
 30
0.0
 10
9.894621080684932
 20
1.457080314960632
 30
0.0
 10
9.890217809880614
 20
1.457080314960632
 30
0.0
  0
SPLINE
  5
E9
330
1F
100
AcDbEntity
  8
0
  6
Continuous
 62
     7
370
    25
100
AcDbSpline
210
0.0
220
0.0
230
1.0
 70
    24
 71
     3
 72
     9
 73
     5
 74
     0
 42
0.00000001
 43
0.00000001
 40
0.0
 40
0.0
 40
0.0
 40
0.0
 40
0.5237449186995973
 40
1.0
 40
1.0
 40
1.0
 40
1.0
 10
9.937078669178206
 20
1.456080314960635
 30
0.0
 10
9.934031766895865
 20
1.456080314960633
 30
0.0
 10
9.928214235930774
 20
1.456080314960627
 30
0.0
 10
9.9213166489187
 20
1.456080314960631
 30
0.0
 10
9.918031638055485
 20
1.456080314960633
 30
0.0
  0
SPLINE
  5
EA
330
1F
100
AcDbEntity
  8
0
  6
Continuous
 62
     7
370
    25
100
AcDbSpline
210
0.0
220
0.0
230
1.0
 70
    24
 71
     3
 72
     9
 73
     5
 74
     0
 42
0.00000001
 43
0.00000001
 40
0.0
 40
0.0
 40
0.0
 40
0.0
 40
0.5237449186992382
 40
1.0
 40
1.0
 40
1.0
 40
1.0
 10
9.9370786691782
 20
1.457080314960627
 30
0.0
 10
9.934031766895858
 20
1.457080314960628
 30
0.0
 10
9.928214235930769
 20
1.45708031496063
 30
0.0
 10
9.921316648918692
 20
1.457080314960628
 30
0.0
 10
9.91803163805548
 20
1.457080314960627
 30
0.0
  0
SPLINE
  5
EC
330
1F
100
AcDbEntity
  8
0
  6
Continuous
 62
     7
370
    25
100
AcDbSpline
210
0.0
220
0.0
230
1.0
 70
    24
 71
     3
 72
    11
 73
     7
 74
     0
 42
0.00000001
 43
0.00000001
 40
0.0
 40
0.0
 40
0.0
 40
0.0
 40
0.2770805551160341
 40
0.6018918255707777
 40
0.8114635969061312
 40
1.0
 40
1.0
 40
1.0
 40
1.0
 10
9.938826803147606
 20
1.456080314960633
 30
0.0
 10
9.940465913002853
 20
1.456080314960631
 30
0.0
 10
9.94402649062142
 20
1.456080314960628
 30
0.0
 10
9.94452456951414
 20
1.456080314960634
 30
0.0
 10
9.942727747151041
 20
1.456080314960629
 30
0.0
 10
9.938894175334067
 20
1.456080314960634
 30
0.0
 10
9.937078669178206
 20
1.456080314960635
 30
0.0
  0
SPLINE
  5
ED
330
1F
100
AcDbEntity
  8
0
  6
Continuous
 62
     7
370
    25
100
AcDbSpline
210
0.0
220
0.0
230
1.0
 70
    24
 71
     3
 72
    11
 73
     7
 74
     0
 42
0.00000001
 43
0.00000001
 40
0.0
 40
0.0
 40
0.0
 40
0.0
 40
0.2770805551161042
 40
0.601891825570505
 40
0.8114635969058788
 40
0.9999999999999999
 40
0.9999999999999999
 40
0.9999999999999999
 40
0.9999999999999999
 10
9.938826803147608
 20
1.457080314960627
 30
0.0
 10
9.940465913002857
 20
1.457080314960628
 30
0.0
 10
9.944026490621424
 20
1.45708031496063
 30
0.0
 10
9.94452456951414
 20
1.457080314960629
 30
0.0
 10
9.94272774715104
 20
1.457080314960629
 30
0.0
 10
9.938894175334061
 20
1.457080314960628
 30
0.0
 10
9.9370786691782
 20
1.457080314960627
 30
0.0
  0
SPLINE
  5
F1
330
1F
100
AcDbEntity
  8
0
  6
Continuous
 62
     7
370
    25
100
AcDbSpline
210
0.0
220
0.0
230
1.0
 70
    24
 71
     3
 72
     9
 73
     5
 74
     0
 42
0.00000001
 43
0.00000001
 40
0.0
 40
0.0
 40
0.0
 40
0.0
 40
0.5278696394472797
 40
1.0
 40
1.0
 40
1.0
 40
1.0
 10
9.789242681485492
 20
1.45608031496063
 30
0.0
 10
9.786285174385105
 20
1.456080314960631
 30
0.0
 10
9.78068245189574
 20
1.456080314960631
 30
0.0
 10
9.77968249307055
 20
1.456080314960632
 30
0.0
 10
9.779210382149877
 20
1.456080314960632
 30
0.0
  0
SPLINE
  5
F2
330
1F
100
AcDbEntity
  8
0
  6
Continuous
 62
     7
370
    25
100
AcDbSpline
210
0.0
220
0.0
230
1.0
 70
    24
 71
     3
 72
     9
 73
     5
 74
     0
 42
0.00000001
 43
0.00000001
 40
0.0
 40
0.0
 40
0.0
 40
0.0
 40
0.5278696394470612
 40
1.0
 40
1.0
 40
1.0
 40
1.0
 10
9.78924268148549
 20
1.457080314960629
 30
0.0
 10
9.786285174385103
 20
1.45708031496063
 30
0.0
 10
9.780682451895736
 20
1.457080314960631
 30
0.0
 10
9.77968249307055
 20
1.457080314960629
 30
0.0
 10
9.77921038214988
 20
1.457080314960628
 30
0.0
  0
SPLINE
  5
F4
330
1F
100
AcDbEntity
  8
0
  6
Continuous
 62
     7
370
    25
100
AcDbSpline
210
0.0
220
0.0
230
1.0
 70
    24
 71
     3
 72
    11
 73
     7
 74
     0
 42
0.00000001
 43
0.00000001
 40
0.0
 40
0.0
 40
0.0
 40
0.0
 40
0.3245511965071188
 40
0.6026968060639403
 40
0.8025589869529727
 40
1.0
 40
1.0
 40
1.0
 40
1.0
 10
9.821818279882548
 20
1.456080314960629
 30
0.0
 10
9.822284657563909
 20
1.456080314960628
 30
0.0
 10
9.82315072843963
 20
1.456080314960627
 30
0.0
 10
9.827675103890616
 20
1.456080314960629
 30
0.0
 10
9.833848879302787
 20
1.456080314960628
 30
0.0
 10
9.838867141146519
 20
1.456080314960628
 30
0.0
 10
9.841360981410794
 20
1.456080314960628
 30
0.0
  0
SPLINE
  5
F5
330
1F
100
AcDbEntity
  8
0
  6
Continuous
 62
     7
370
    25
100
AcDbSpline
210
0.0
220
0.0
230
1.0
 70
    24
 71
     3
 72
    11
 73
     7
 74
     0
 42
0.00000001
 43
0.00000001
 40
0.0
 40
0.0
 40
0.0
 40
0.0
 40
0.3245511965071489
 40
0.6026968060639767
 40
0.8025589869529541
 40
0.9999999999999999
 40
0.9999999999999999
 40
0.9999999999999999
 40
0.9999999999999999
 10
9.821818279882551
 20
1.457080314960628
 30
0.0
 10
9.822284657563914
 20
1.45708031496063
 30
0.0
 10
9.823150728439638
 20
1.457080314960633
 30
0.0
 10
9.827675103890614
 20
1.457080314960633
 30
0.0
 10
9.833848879302787
 20
1.457080314960631
 30
0.0
 10
9.838867141146524
 20
1.457080314960633
 30
0.0
 10
9.841360981410796
 20
1.457080314960633
 30
0.0
  0
SPLINE
  5
F7
330
1F
100
AcDbEntity
  8
0
  6
Continuous
 62
     7
370
    25
100
AcDbSpline
210
0.0
220
0.0
230
1.0
 70
    24
 71
     3
 72
     9
 73
     5
 74
     0
 42
0.00000001
 43
0.00000001
 40
0.0
 40
0.0
 40
0.0
 40
0.0
 40
0.5998371471453281
 40
1.0
 40
1.0
 40
1.0
 40
1.0
 10
9.986196421336333
 20
1.45608031496063
 30
0.0
 10
9.985914664625229
 20
1.456080314960629
 30
0.0
 10
9.985444942614103
 20
1.456080314960626
 30
0.0
 10
9.979888073403643
 20
1.456080314960631
 30
0.0
 10
9.977664420767445
 20
1.456080314960633
 30
0.0
  0
SPLINE
  5
F8
330
1F
100
AcDbEntity
  8
0
  6
Continuous
 62
     7
370
    25
100
AcDbSpline
210
0.0
220
0.0
230
1.0
 70
    24
 71
     3
 72
     9
 73
     5
 74
     0
 42
0.00000001
 43
0.00000001
 40
0.0
 40
0.0
 40
0.0
 40
0.0
 40
0.5998371471456153
 40
1.0
 40
1.0
 40
1.0
 40
1.0
 10
9.986196421336341
 20
1.457080314960628
 30
0.0
 10
9.985914664625234
 20
1.45708031496063
 30
0.0
 10
9.985444942614103
 20
1.457080314960634
 30
0.0
 10
9.979888073403638
 20
1.457080314960629
 30
0.0
 10
9.977664420767441
 20
1.457080314960627
 30
0.0
  0
SPLINE
  5
FA
330
1F
100
AcDbEntity
  8
0
  6
Continuous
 62
     7
370
    25
100
AcDbSpline
210
0.0
220
0.0
230
1.0
 70
    24
 71
     3
 72
     9
 73
     5
 74
     0
 42
0.00000001
 43
0.00000001
 40
0.0
 40
0.0
 40
0.0
 40
0.0
 40
0.5508853821066565
 40
1.0
 40
1.0
 40
1.0
 40
1.0
 10
9.925298235873203
 20
1.456080314960635
 30
0.0
 10
9.928247886377747
 20
1.456080314960634
 30
0.0
 10
9.933602267888585
 20
1.456080314960631
 30
0.0
 10
9.937207597097544
 20
1.456080314960632
 30
0.0
 10
9.938826803147604
 20
1.456080314960632
 30
0.0
  0
SPLINE
  5
FB
330
1F
100
AcDbEntity
  8
0
  6
Continuous
 62
     7
370
    25
100
AcDbSpline
210
0.0
220
0.0
230
1.0
 70
    24
 71
     3
 72
     9
 73
     5
 74
     0
 42
0.00000001
 43
0.00000001
 40
0.0
 40
0.0
 40
0.0
 40
0.0
 40
0.5508853821065206
 40
1.0
 40
1.0
 40
1.0
 40
1.0
 10
9.925298235873203
 20
1.457080314960629
 30
0.0
 10
9.928247886377747
 20
1.45708031496063
 30
0.0
 10
9.93360226788859
 20
1.457080314960632
 30
0.0
 10
9.937207597097547
 20
1.457080314960628
 30
0.0
 10
9.938826803147608
 20
1.457080314960627
 30
0.0
  0
SPLINE
  5
FD
330
1F
100
AcDbEntity
  8
0
  6
Continuous
 62
     7
370
    25
100
AcDbSpline
210
0.0
220
0.0
230
1.0
 70
    24
 71
     3
 72
    11
 73
     7
 74
     0
 42
0.00000001
 43
0.00000001
 40
0.0
 40
0.0
 40
0.0
 40
0.0
 40
0.2384522827219887
 40
0.5004086139391954
 40
0.7323128910338119
 40
1.0
 40
1.0
 40
1.0
 40
1.0
 10
9.841360981410794
 20
1.456080314960628
 30
0.0
 10
9.84619425426075
 20
1.456080314960627
 30
0.0
 10
9.856337211753239
 20
1.456080314960626
 30
0.0
 10
9.8726450422445
 20
1.456080314960628
 30
0.0
 10
9.889681118116307
 20
1.456080314960632
 30
0.0
 10
9.900801550953055
 20
1.456080314960633
 30
0.0
 10
9.906760013407727
 20
1.456080314960633
 30
0.0
  0
SPLINE
  5
FE
330
1F
100
AcDbEntity
  8
0
  6
Continuous
 62
     7
370
    25
100
AcDbSpline
210
0.0
220
0.0
230
1.0
 70
    24
 71
     3
 72
    11
 73
     7
 74
     0
 42
0.00000001
 43
0.00000001
 40
0.0
 40
0.0
 40
0.0
 40
0.0
 40
0.2384522827219413
 40
0.5004086139390793
 40
0.7323128910337069
 40
1.0
 40
1.0
 40
1.0
 40
1.0
 10
9.841360981410794
 20
1.457080314960633
 30
0.0
 10
9.846194254260752
 20
1.457080314960631
 30
0.0
 10
9.856337211753239
 20
1.457080314960628
 30
0.0
 10
9.872645042244496
 20
1.457080314960626
 30
0.0
 10
9.889681118116313
 20
1.45708031496063
 30
0.0
 10
9.900801550953062
 20
1.457080314960628
 30
0.0
 10
9.906760013407736
 20
1.457080314960626
 30
0.0
  0
SPLINE
  5
100
330
1F
100
AcDbEntity
  8
0
  6
Continuous
 62
     7
370
    25
100
AcDbSpline
210
0.0
220
0.0
230
1.0
 70
    24
 71
     3
 72
     9
 73
     5
 74
     0
 42
0.00000001
 43
0.00000001
 40
0.0
 40
0.0
 40
0.0
 40
0.0
 40
0.5547770813291403
 40
0.9999999999999999
 40
0.9999999999999999
 40
0.9999999999999999
 40
0.9999999999999999
 10
9.813299268267038
 20
1.456080314960634
 30
0.0
 10
9.807979366473742
 20
1.456080314960633
 30
0.0
 10
9.798390106260339
 20
1.456080314960629
 30
0.0
 10
9.792060684925628
 20
1.45608031496063
 30
0.0
 10
9.789242681485492
 20
1.45608031496063
 30
0.0
  0
SPLINE
  5
101
330
1F
100
AcDbEntity
  8
0
  6
Continuous
 62
     7
370
    25
100
AcDbSpline
210
0.0
220
0.0
230
1.0
 70
    24
 71
     3
 72
     9
 73
     5
 74
     0
 42
0.00000001
 43
0.00000001
 40
0.0
 40
0.0
 40
0.0
 40
0.0
 40
0.5547770813291296
 40
1.0
 40
1.0
 40
1.0
 40
1.0
 10
9.813299268267043
 20
1.457080314960633
 30
0.0
 10
9.80797936647375
 20
1.457080314960632
 30
0.0
 10
9.79839010626035
 20
1.45708031496063
 30
0.0
 10
9.79206068492563
 20
1.45708031496063
 30
0.0
 10
9.78924268148549
 20
1.457080314960629
 30
0.0
  0
SPLINE
  5
104
330
1F
100
AcDbEntity
  8
0
  6
Continuous
 62
     7
370
    25
100
AcDbSpline
210
0.0
220
0.0
230
1.0
 70
    24
 71
     3
 72
     9
 73
     5
 74
     0
 42
0.00000001
 43
0.00000001
 40
0.0
 40
0.0
 40
0.0
 40
0.0
 40
0.5717089162452311
 40
1.0
 40
1.0
 40
1.0
 40
1.0
 10
9.906760013407727
 20
1.456080314960633
 30
0.0
 10
9.910445970810368
 20
1.456080314960633
 30
0.0
 10
9.916893233215944
 20
1.456080314960633
 30
0.0
 10
9.92277788988912
 20
1.456080314960634
 30
0.0
 10
9.925298235873203
 20
1.456080314960635
 30
0.0
  0
SPLINE
  5
105
330
1F
100
AcDbEntity
  8
0
  6
Continuous
 62
     7
370
    25
100
AcDbSpline
210
0.0
220
0.0
230
1.0
 70
    24
 71
     3
 72
     9
 73
     5
 74
     0
 42
0.00000001
 43
0.00000001
 40
0.0
 40
0.0
 40
0.0
 40
0.0
 40
0.5717089162448854
 40
1.0
 40
1.0
 40
1.0
 40
1.0
 10
9.906760013407736
 20
1.457080314960626
 30
0.0
 10
9.91044597081037
 20
1.457080314960628
 30
0.0
 10
9.916893233215939
 20
1.457080314960633
 30
0.0
 10
9.922777889889119
 20
1.457080314960631
 30
0.0
 10
9.925298235873203
 20
1.457080314960629
 30
0.0
  0
SPLINE
  5
107
330
1F
100
AcDbEntity
  8
0
  6
Continuous
 62
     7
370
    25
100
AcDbSpline
210
0.0
220
0.0
230
1.0
 70
    24
 71
     3
 72
     9
 73
     5
 74
     0
 42
0.00000001
 43
0.00000001
 40
0.0
 40
0.0
 40
0.0
 40
0.0
 40
0.5617825146078511
 40
1.0
 40
1.0
 40
1.0
 40
1.0
 10
9.977664420767443
 20
1.456080314960632
 30
0.0
 10
9.974208687213492
 20
1.456080314960631
 30
0.0
 10
9.968057314637642
 20
1.456080314960631
 30
0.0
 10
9.959062713290399
 20
1.456080314960629
 30
0.0
 10
9.955121121705904
 20
1.456080314960628
 30
0.0
  0
SPLINE
  5
108
330
1F
100
AcDbEntity
  8
0
  6
Continuous
 62
     7
370
    25
100
AcDbSpline
210
0.0
220
0.0
230
1.0
 70
    24
 71
     3
 72
     9
 73
     5
 74
     0
 42
0.00000001
 43
0.00000001
 40
0.0
 40
0.0
 40
0.0
 40
0.0
 40
0.5617825146079227
 40
1.0
 40
1.0
 40
1.0
 40
1.0
 10
9.977664420767441
 20
1.457080314960627
 30
0.0
 10
9.974208687213492
 20
1.457080314960629
 30
0.0
 10
9.968057314637642
 20
1.457080314960631
 30
0.0
 10
9.959062713290395
 20
1.457080314960629
 30
0.0
 10
9.9551211217059
 20
1.457080314960627
 30
0.0
  0
SPLINE
  5
10A
330
1F
100
AcDbEntity
  8
0
  6
Continuous
 62
     7
370
    25
100
AcDbSpline
210
0.0
220
0.0
230
1.0
 70
    24
 71
     3
 72
     9
 73
     5
 74
     0
 42
0.00000001
 43
0.00000001
 40
0.0
 40
0.0
 40
0.0
 40
0.0
 40
0.5702086699681534
 40
1.0
 40
1.0
 40
1.0
 40
1.0
 10
9.84762300063352
 20
1.456080314960625
 30
0.0
 10
9.840710579767654
 20
1.456080314960627
 30
0.0
 10
9.82858796355725
 20
1.456080314960629
 30
0.0
 10
9.817895007900654
 20
1.456080314960633
 30
0.0
 10
9.813299268267038
 20
1.456080314960634
 30
0.0
  0
SPLINE
  5
10B
330
1F
100
AcDbEntity
  8
0
  6
Continuous
 62
     7
370
    25
100
AcDbSpline
210
0.0
220
0.0
230
1.0
 70
    24
 71
     3
 72
     9
 73
     5
 74
     0
 42
0.00000001
 43
0.00000001
 40
0.0
 40
0.0
 40
0.0
 40
0.0
 40
0.5702086699682595
 40
1.0
 40
1.0
 40
1.0
 40
1.0
 10
9.847623000633522
 20
1.457080314960634
 30
0.0
 10
9.840710579767654
 20
1.457080314960632
 30
0.0
 10
9.828587963557254
 20
1.457080314960629
 30
0.0
 10
9.817895007900663
 20
1.457080314960632
 30
0.0
 10
9.813299268267045
 20
1.457080314960633
 30
0.0
  0
SPLINE
  5
10D
330
1F
100
AcDbEntity
  8
0
  6
Continuous
 62
     7
370
    25
100
AcDbSpline
210
0.0
220
0.0
230
1.0
 70
    24
 71
     3
 72
     9
 73
     5
 74
     0
 42
0.00000001
 43
0.00000001
 40
0.0
 40
0.0
 40
0.0
 40
0.0
 40
0.5486522687284896
 40
1.0
 40
1.0
 40
1.0
 40
1.0
 10
9.955121121705904
 20
1.456080314960628
 30
0.0
 10
9.94962881441011
 20
1.456080314960628
 30
0.0
 10
9.939618271104559
 20
1.456080314960628
 30
0.0
 10
9.928708843696983
 20
1.456080314960633
 30
0.0
 10
9.923784898387101
 20
1.456080314960634
 30
0.0
  0
SPLINE
  5
10E
330
1F
100
AcDbEntity
  8
0
  6
Continuous
 62
     7
370
    25
100
AcDbSpline
210
0.0
220
0.0
230
1.0
 70
    24
 71
     3
 72
     9
 73
     5
 74
     0
 42
0.00000001
 43
0.00000001
 40
0.0
 40
0.0
 40
0.0
 40
0.0
 40
0.5486522687284693
 40
1.0
 40
1.0
 40
1.0
 40
1.0
 10
9.955121121705897
 20
1.457080314960627
 30
0.0
 10
9.949628814410103
 20
1.457080314960629
 30
0.0
 10
9.939618271104555
 20
1.457080314960634
 30
0.0
 10
9.928708843696983
 20
1.457080314960632
 30
0.0
 10
9.923784898387101
 20
1.45708031496063
 30
0.0
  0
SPLINE
  5
111
330
1F
100
AcDbEntity
  8
0
  6
Continuous
 62
     7
370
    25
100
AcDbSpline
210
0.0
220
0.0
230
1.0
 70
    24
 71
     3
 72
     9
 73
     5
 74
     0
 42
0.00000001
 43
0.00000001
 40
0.0
 40
0.0
 40
0.0
 40
0.0
 40
0.524740022808408
 40
1.0
 40
1.0
 40
1.0
 40
1.0
 10
9.923784898387101
 20
1.456080314960634
 30
0.0
 10
9.91040767899124
 20
1.456080314960634
 30
0.0
 10
9.884914637076378
 20
1.456080314960633
 30
0.0
 10
9.85963662708532
 20
1.456080314960628
 30
0.0
 10
9.84762300063352
 20
1.456080314960625
 30
0.0
  0
SPLINE
  5
112
330
1F
100
AcDbEntity
  8
0
  6
Continuous
 62
     7
370
    25
100
AcDbSpline
210
0.0
220
0.0
230
1.0
 70
    24
 71
     3
 72
     9
 73
     5
 74
     0
 42
0.00000001
 43
0.00000001
 40
0.0
 40
0.0
 40
0.0
 40
0.0
 40
0.5247400228084078
 40
1.0
 40
1.0
 40
1.0
 40
1.0
 10
9.923784898387101
 20
1.45708031496063
 30
0.0
 10
9.910407678991241
 20
1.457080314960632
 30
0.0
 10
9.884914637076378
 20
1.457080314960634
 30
0.0
 10
9.859636627085322
 20
1.457080314960634
 30
0.0
 10
9.847623000633522
 20
1.457080314960634
 30
0.0
  0
SPLINE
  5
117
330
1F
100
AcDbEntity
  8
0
  6
Continuous
 62
     7
370
    25
100
AcDbSpline
210
0.0
220
0.0
230
1.0
 70
    24
 71
     3
 72
     9
 73
     5
 74
     0
 42
0.00000001
 43
0.00000001
 40
0.0
 40
0.0
 40
0.0
 40
0.0
 40
0.5881100788943283
 40
0.9999999999999999
 40
0.9999999999999999
 40
0.9999999999999999
 40
0.9999999999999999
 10
10.11742237430086
 20
1.45608031496063
 30
0.0
 10
10.11761879659613
 20
1.456080314960632
 30
0.0
 10
10.11795278559295
 20
1.456080314960635
 30
0.0
 10
10.12112526672335
 20
1.456080314960633
 30
0.0
 10
10.12243197972586
 20
1.456080314960632
 30
0.0
  0
SPLINE
  5
119
330
1F
100
AcDbEntity
  8
0
  6
Continuous
 62
     7
370
    25
100
AcDbSpline
210
0.0
220
0.0
230
1.0
 70
    24
 71
     3
 72
     9
 73
     5
 74
     0
 42
0.00000001
 43
0.00000001
 40
0.0
 40
0.0
 40
0.0
 40
0.0
 40
0.5881100788942838
 40
1.0
 40
1.0
 40
1.0
 40
1.0
 10
10.11742237430085
 20
1.457080314960627
 30
0.0
 10
10.11761879659613
 20
1.457080314960628
 30
0.0
 10
10.11795278559295
 20
1.457080314960632
 30
0.0
 10
10.12112526672335
 20
1.45708031496063
 30
0.0
 10
10.12243197972586
 20
1.457080314960629
 30
0.0
  0
SPLINE
  5
11B
330
1F
100
AcDbEntity
  8
0
  6
Continuous
 62
     7
370
    25
100
AcDbSpline
210
0.0
220
0.0
230
1.0
 70
    24
 71
     3
 72
     9
 73
     5
 74
     0
 42
0.00000001
 43
0.00000001
 40
0.0
 40
0.0
 40
0.0
 40
0.0
 40
0.5760001106052046
 40
1.0
 40
1.0
 40
1.0
 40
1.0
 10
10.12243197972586
 20
1.456080314960632
 30
0.0
 10
10.12453790151416
 20
1.456080314960632
 30
0.0
 10
10.12819401502789
 20
1.456080314960633
 30
0.0
 10
10.13541624034552
 20
1.456080314960632
 30
0.0
 10
10.13847846308138
 20
1.456080314960632
 30
0.0
  0
SPLINE
  5
11C
330
1F
100
AcDbEntity
  8
0
  6
Continuous
 62
     7
370
    25
100
AcDbSpline
210
0.0
220
0.0
230
1.0
 70
    24
 71
     3
 72
     9
 73
     5
 74
     0
 42
0.00000001
 43
0.00000001
 40
0.0
 40
0.0
 40
0.0
 40
0.0
 40
0.5760001106053931
 40
0.9999999999999999
 40
0.9999999999999999
 40
0.9999999999999999
 40
0.9999999999999999
 10
10.12243197972586
 20
1.457080314960629
 30
0.0
 10
10.12453790151415
 20
1.457080314960631
 30
0.0
 10
10.12819401502789
 20
1.457080314960633
 30
0.0
 10
10.13541624034552
 20
1.457080314960633
 30
0.0
 10
10.13847846308138
 20
1.457080314960633
 30
0.0
  0
SPLINE
  5
11E
330
1F
100
AcDbEntity
  8
0
  6
Continuous
 62
     7
370
    25
100
AcDbSpline
210
0.0
220
0.0
230
1.0
 70
    24
 71
     3
 72
     9
 73
     5
 74
     0
 42
0.00000001
 43
0.00000001
 40
0.0
 40
0.0
 40
0.0
 40
0.0
 40
0.5453042424338184
 40
0.9999999999999999
 40
0.9999999999999999
 40
0.9999999999999999
 40
0.9999999999999999
 10
10.13847846308138
 20
1.456080314960632
 30
0.0
 10
10.14306170505501
 20
1.456080314960631
 30
0.0
 10
10.15146663136398
 20
1.456080314960629
 30
0.0
 10
10.16251016752671
 20
1.456080314960631
 30
0.0
 10
10.16753161656843
 20
1.456080314960631
 30
0.0
  0
SPLINE
  5
11F
330
1F
100
AcDbEntity
  8
0
  6
Continuous
 62
     7
370
    25
100
AcDbSpline
210
0.0
220
0.0
230
1.0
 70
    24
 71
     3
 72
     9
 73
     5
 74
     0
 42
0.00000001
 43
0.00000001
 40
0.0
 40
0.0
 40
0.0
 40
0.0
 40
0.5453042424339064
 40
1.0
 40
1.0
 40
1.0
 40
1.0
 10
10.13847846308138
 20
1.457080314960633
 30
0.0
 10
10.14306170505501
 20
1.457080314960633
 30
0.0
 10
10.15146663136399
 20
1.457080314960635
 30
0.0
 10
10.16251016752671
 20
1.457080314960636
 30
0.0
 10
10.16753161656843
 20
1.457080314960636
 30
0.0
  0
SPLINE
  5
120
330
1F
100
AcDbEntity
  8
0
  6
Continuous
 62
     7
370
    25
100
AcDbSpline
210
0.0
220
0.0
230
1.0
 70
    24
 71
     3
 72
     9
 73
     5
 74
     0
 42
0.00000001
 43
0.00000001
 40
0.0
 40
0.0
 40
0.0
 40
0.0
 40
0.5253540214882778
 40
1.0
 40
1.0
 40
1.0
 40
1.0
 10
10.15400304929402
 20
1.456080314960628
 30
0.0
 10
10.14575459675291
 20
1.456080314960628
 30
0.0
 10
10.13005384601392
 20
1.456080314960629
 30
0.0
 10
10.12047071832121
 20
1.45608031496063
 30
0.0
 10
10.1159221253003
 20
1.456080314960631
 30
0.0
  0
SPLINE
  5
121
330
1F
100
AcDbEntity
  8
0
  6
Continuous
 62
     7
370
    25
100
AcDbSpline
210
0.0
220
0.0
230
1.0
 70
    24
 71
     3
 72
     9
 73
     5
 74
     0
 42
0.00000001
 43
0.00000001
 40
0.0
 40
0.0
 40
0.0
 40
0.0
 40
0.5253540214883695
 40
1.0
 40
1.0
 40
1.0
 40
1.0
 10
10.15400304929402
 20
1.457080314960629
 30
0.0
 10
10.14575459675291
 20
1.457080314960629
 30
0.0
 10
10.13005384601392
 20
1.457080314960629
 30
0.0
 10
10.12047071832121
 20
1.457080314960631
 30
0.0
 10
10.11592212530031
 20
1.457080314960631
 30
0.0
  0
SPLINE
  5
127
330
1F
100
AcDbEntity
  8
0
  6
Continuous
 62
     7
370
    25
100
AcDbSpline
210
0.0
220
0.0
230
1.0
 70
    24
 71
     3
 72
     9
 73
     5
 74
     0
 42
0.00000001
 43
0.00000001
 40
0.0
 40
0.0
 40
0.0
 40
0.0
 40
0.5246170726496264
 40
1.0
 40
1.0
 40
1.0
 40
1.0
 10
10.16753161656843
 20
1.456080314960631
 30
0.0
 10
10.17499616463677
 20
1.456080314960632
 30
0.0
 10
10.18922472954153
 20
1.456080314960633
 30
0.0
 10
10.20407255290776
 20
1.456080314960631
 30
0.0
 10
10.21113095464438
 20
1.456080314960629
 30
0.0
  0
SPLINE
  5
128
330
1F
100
AcDbEntity
  8
0
  6
Continuous
 62
     7
370
    25
100
AcDbSpline
210
0.0
220
0.0
230
1.0
 70
    24
 71
     3
 72
     9
 73
     5
 74
     0
 42
0.00000001
 43
0.00000001
 40
0.0
 40
0.0
 40
0.0
 40
0.0
 40
0.5246170726495938
 40
1.0
 40
1.0
 40
1.0
 40
1.0
 10
10.16753161656843
 20
1.457080314960636
 30
0.0
 10
10.17499616463677
 20
1.457080314960635
 30
0.0
 10
10.18922472954153
 20
1.457080314960633
 30
0.0
 10
10.20407255290776
 20
1.457080314960629
 30
0.0
 10
10.21113095464438
 20
1.457080314960627
 30
0.0
  0
SPLINE
  5
12C
330
1F
100
AcDbEntity
  8
0
  6
Continuous
 62
     7
370
    25
100
AcDbSpline
210
0.0
220
0.0
230
1.0
 70
    24
 71
     3
 72
     9
 73
     5
 74
     0
 42
0.00000001
 43
0.00000001
 40
0.0
 40
0.0
 40
0.0
 40
0.0
 40
0.590698968100925
 40
1.0
 40
1.0
 40
1.0
 40
1.0
 10
10.21113095464437
 20
1.456080314960629
 30
0.0
 10
10.19918708208131
 20
1.45608031496063
 30
0.0
 10
10.17896718462412
 20
1.456080314960631
 30
0.0
 10
10.16125334296428
 20
1.456080314960629
 30
0.0
 10
10.15400304929402
 20
1.456080314960628
 30
0.0
  0
SPLINE
  5
12D
330
1F
100
AcDbEntity
  8
0
  6
Continuous
 62
     7
370
    25
100
AcDbSpline
210
0.0
220
0.0
230
1.0
 70
    24
 71
     3
 72
     9
 73
     5
 74
     0
 42
0.00000001
 43
0.00000001
 40
0.0
 40
0.0
 40
0.0
 40
0.0
 40
0.5906989681010418
 40
1.0
 40
1.0
 40
1.0
 40
1.0
 10
10.21113095464438
 20
1.457080314960627
 30
0.0
 10
10.19918708208131
 20
1.457080314960627
 30
0.0
 10
10.17896718462413
 20
1.457080314960627
 30
0.0
 10
10.16125334296429
 20
1.457080314960629
 30
0.0
 10
10.15400304929402
 20
1.457080314960629
 30
0.0
  0
SPLINE
  5
132
330
1F
100
AcDbEntity
  8
0
  6
Continuous
 62
     7
370
    25
100
AcDbSpline
210
0.0
220
0.0
230
1.0
 70
    24
 71
     3
 72
    10
 73
     6
 74
     0
 42
0.00000001
 43
0.00000001
 40
0.0
 40
0.0
 40
0.0
 40
0.0
 40
0.2377889145100856
 40
0.530605011627412
 40
1.0
 40
1.0
 40
1.0
 40
1.0
 10
10.31381505108431
 20
1.456080314960627
 30
0.0
 10
10.32100318129192
 20
1.456080314960629
 30
0.0
 10
10.33704286051855
 20
1.456080314960634
 30
0.0
 10
10.36902496136441
 20
1.456080314960625
 30
0.0
 10
10.39191431618447
 20
1.45608031496063
 30
0.0
 10
10.40601034370775
 20
1.456080314960633
 30
0.0
  0
SPLINE
  5
133
330
1F
100
AcDbEntity
  8
0
  6
Continuous
 62
     7
370
    25
100
AcDbSpline
210
0.0
220
0.0
230
1.0
 70
    24
 71
     3
 72
    10
 73
     6
 74
     0
 42
0.00000001
 43
0.00000001
 40
0.0
 40
0.0
 40
0.0
 40
0.0
 40
0.2377889145100053
 40
0.5306050116272591
 40
1.0
 40
1.0
 40
1.0
 40
1.0
 10
10.31381505108431
 20
1.457080314960635
 30
0.0
 10
10.32100318129192
 20
1.457080314960634
 30
0.0
 10
10.33704286051855
 20
1.457080314960632
 30
0.0
 10
10.3690249613644
 20
1.457080314960632
 30
0.0
 10
10.39191431618446
 20
1.457080314960631
 30
0.0
 10
10.40601034370775
 20
1.45708031496063
 30
0.0
  0
SPLINE
  5
138
330
1F
100
AcDbEntity
  8
0
  6
Continuous
 62
     7
370
    25
100
AcDbSpline
210
0.0
220
0.0
230
1.0
 70
    24
 71
     3
 72
     9
 73
     5
 74
     0
 42
0.00000001
 43
0.00000001
 40
0.0
 40
0.0
 40
0.0
 40
0.0
 40
0.544365871337786
 40
1.0
 40
1.0
 40
1.0
 40
1.0
 10
10.2862491078783
 20
1.457080314960635
 30
0.0
 10
10.29062554643592
 20
1.457080314960634
 30
0.0
 10
10.29866506321692
 20
1.457080314960632
 30
0.0
 10
10.30907288999775
 20
1.457080314960634
 30
0.0
 10
10.3138150510843
 20
1.457080314960635
 30
0.0
  0
SPLINE
  5
13A
330
1F
100
AcDbEntity
  8
0
  6
Continuous
 62
     7
370
    25
100
AcDbSpline
210
0.0
220
0.0
230
1.0
 70
    24
 71
     3
 72
     9
 73
     5
 74
     0
 42
0.00000001
 43
0.00000001
 40
0.0
 40
0.0
 40
0.0
 40
0.0
 40
0.5443658713378366
 40
0.9999999999999999
 40
0.9999999999999999
 40
0.9999999999999999
 40
0.9999999999999999
 10
10.2862491078783
 20
1.456080314960631
 30
0.0
 10
10.29062554643592
 20
1.456080314960631
 30
0.0
 10
10.29866506321691
 20
1.456080314960631
 30
0.0
 10
10.30907288999775
 20
1.456080314960628
 30
0.0
 10
10.31381505108431
 20
1.456080314960627
 30
0.0
  0
SPLINE
  5
13B
330
1F
100
AcDbEntity
  8
0
  6
Continuous
 62
     7
370
    25
100
AcDbSpline
210
0.0
220
0.0
230
1.0
 70
    24
 71
     3
 72
     9
 73
     5
 74
     0
 42
0.00000001
 43
0.00000001
 40
0.0
 40
0.0
 40
0.0
 40
0.0
 40
0.5399892180388879
 40
1.0
 40
1.0
 40
1.0
 40
1.0
 10
10.40601034370775
 20
1.45708031496063
 30
0.0
 10
10.41358301952537
 20
1.457080314960631
 30
0.0
 10
10.4276067732683
 20
1.457080314960633
 30
0.0
 10
10.43650275311641
 20
1.45708031496063
 30
0.0
 10
10.44059499976265
 20
1.457080314960628
 30
0.0
  0
SPLINE
  5
13D
330
1F
100
AcDbEntity
  8
0
  6
Continuous
 62
     7
370
    25
100
AcDbSpline
210
0.0
220
0.0
230
1.0
 70
    24
 71
     3
 72
     9
 73
     5
 74
     0
 42
0.00000001
 43
0.00000001
 40
0.0
 40
0.0
 40
0.0
 40
0.0
 40
0.5399892180388309
 40
1.0
 40
1.0
 40
1.0
 40
1.0
 10
10.40601034370775
 20
1.456080314960633
 30
0.0
 10
10.41358301952537
 20
1.456080314960632
 30
0.0
 10
10.42760677326829
 20
1.45608031496063
 30
0.0
 10
10.43650275311641
 20
1.456080314960633
 30
0.0
 10
10.44059499976266
 20
1.456080314960634
 30
0.0
  0
SPLINE
  5
13F
330
1F
100
AcDbEntity
  8
0
  6
Continuous
 62
     7
370
    25
100
AcDbSpline
210
0.0
220
0.0
230
1.0
 70
    24
 71
     3
 72
     9
 73
     5
 74
     0
 42
0.00000001
 43
0.00000001
 40
0.0
 40
0.0
 40
0.0
 40
0.0
 40
0.569970664480737
 40
1.0
 40
1.0
 40
1.0
 40
1.0
 10
10.27146817657221
 20
1.45708031496063
 30
0.0
 10
10.2733369768493
 20
1.457080314960631
 30
0.0
 10
10.27661574257103
 20
1.457080314960631
 30
0.0
 10
10.2833522234725
 20
1.457080314960633
 30
0.0
 10
10.2862491078783
 20
1.457080314960635
 30
0.0
  0
SPLINE
  5
140
330
1F
100
AcDbEntity
  8
0
  6
Continuous
 62
     7
370
    25
100
AcDbSpline
210
0.0
220
0.0
230
1.0
 70
    24
 71
     3
 72
     9
 73
     5
 74
     0
 42
0.00000001
 43
0.00000001
 40
0.0
 40
0.0
 40
0.0
 40
0.0
 40
0.5699706644807264
 40
1.0
 40
1.0
 40
1.0
 40
1.0
 10
10.2714681765722
 20
1.456080314960633
 30
0.0
 10
10.2733369768493
 20
1.456080314960634
 30
0.0
 10
10.27661574257103
 20
1.456080314960634
 30
0.0
 10
10.2833522234725
 20
1.456080314960632
 30
0.0
 10
10.2862491078783
 20
1.456080314960631
 30
0.0
  0
SPLINE
  5
141
330
1F
100
AcDbEntity
  8
0
  6
Continuous
 62
     7
370
    25
100
AcDbSpline
210
0.0
220
0.0
230
1.0
 70
    24
 71
     3
 72
    11
 73
     7
 74
     0
 42
0.00000001
 43
0.00000001
 40
0.0
 40
0.0
 40
0.0
 40
0.0
 40
0.2391561379196001
 40
0.526097487062076
 40
0.7737156840862061
 40
1.0
 40
1.0
 40
1.0
 40
1.0
 10
10.39623896806058
 20
1.457080314960635
 30
0.0
 10
10.3904073073386
 20
1.457080314960634
 30
0.0
 10
10.37757877582808
 20
1.457080314960632
 30
0.0
 10
10.3577195000595
 20
1.457080314960631
 30
0.0
 10
10.33804673505301
 20
1.457080314960636
 30
0.0
 10
10.32842747447861
 20
1.457080314960633
 30
0.0
 10
10.32383436146643
 20
1.457080314960632
 30
0.0
  0
SPLINE
  5
142
330
1F
100
AcDbEntity
  8
0
  6
Continuous
 62
     7
370
    25
100
AcDbSpline
210
0.0
220
0.0
230
1.0
 70
    24
 71
     3
 72
    11
 73
     7
 74
     0
 42
0.00000001
 43
0.00000001
 40
0.0
 40
0.0
 40
0.0
 40
0.0
 40
0.2391561379194616
 40
0.5260974870620773
 40
0.7737156840861861
 40
1.0
 40
1.0
 40
1.0
 40
1.0
 10
10.39623896806057
 20
1.456080314960626
 30
0.0
 10
10.39040730733859
 20
1.456080314960628
 30
0.0
 10
10.37757877582808
 20
1.456080314960633
 30
0.0
 10
10.3577195000595
 20
1.45608031496063
 30
0.0
 10
10.33804673505302
 20
1.456080314960633
 30
0.0
 10
10.32842747447861
 20
1.456080314960632
 30
0.0
 10
10.32383436146644
 20
1.456080314960631
 30
0.0
  0
SPLINE
  5
144
330
1F
100
AcDbEntity
  8
0
  6
Continuous
 62
     7
370
    25
100
AcDbSpline
210
0.0
220
0.0
230
1.0
 70
    24
 71
     3
 72
     9
 73
     5
 74
     0
 42
0.00000001
 43
0.00000001
 40
0.0
 40
0.0
 40
0.0
 40
0.0
 40
0.5513517731636204
 40
1.0
 40
1.0
 40
1.0
 40
1.0
 10
10.42006080812499
 20
1.457080314960633
 30
0.0
 10
10.41620294416343
 20
1.457080314960633
 30
0.0
 10
10.40920584331177
 20
1.457080314960633
 30
0.0
 10
10.40025482607309
 20
1.457080314960634
 30
0.0
 10
10.39623896806058
 20
1.457080314960635
 30
0.0
  0
SPLINE
  5
145
330
1F
100
AcDbEntity
  8
0
  6
Continuous
 62
     7
370
    25
100
AcDbSpline
210
0.0
220
0.0
230
1.0
 70
    24
 71
     3
 72
     9
 73
     5
 74
     0
 42
0.00000001
 43
0.00000001
 40
0.0
 40
0.0
 40
0.0
 40
0.0
 40
0.5513517731638128
 40
0.9999999999999999
 40
0.9999999999999999
 40
0.9999999999999999
 40
0.9999999999999999
 10
10.42006080812499
 20
1.456080314960632
 30
0.0
 10
10.41620294416343
 20
1.45608031496063
 30
0.0
 10
10.40920584331178
 20
1.456080314960627
 30
0.0
 10
10.40025482607309
 20
1.456080314960626
 30
0.0
 10
10.39623896806057
 20
1.456080314960626
 30
0.0
  0
SPLINE
  5
14B
330
1F
100
AcDbEntity
  8
0
  6
Continuous
 62
     7
370
    25
100
AcDbSpline
210
0.0
220
0.0
230
1.0
 70
    24
 71
     3
 72
     9
 73
     5
 74
     0
 42
0.00000001
 43
0.00000001
 40
0.0
 40
0.0
 40
0.0
 40
0.0
 40
0.5312373084040275
 40
1.0
 40
1.0
 40
1.0
 40
1.0
 10
10.32383436146643
 20
1.457080314960632
 30
0.0
 10
10.31933227916662
 20
1.457080314960632
 30
0.0
 10
10.31085756884679
 20
1.457080314960635
 30
0.0
 10
10.3101354419272
 20
1.457080314960631
 30
0.0
 10
10.3097969357687
 20
1.457080314960629
 30
0.0
  0
SPLINE
  5
14C
330
1F
100
AcDbEntity
  8
0
  6
Continuous
 62
     7
370
    25
100
AcDbSpline
210
0.0
220
0.0
230
1.0
 70
    24
 71
     3
 72
     9
 73
     5
 74
     0
 42
0.00000001
 43
0.00000001
 40
0.0
 40
0.0
 40
0.0
 40
0.0
 40
0.5312373084039306
 40
1.0
 40
1.0
 40
1.0
 40
1.0
 10
10.32383436146644
 20
1.456080314960631
 30
0.0
 10
10.31933227916662
 20
1.456080314960631
 30
0.0
 10
10.31085756884679
 20
1.456080314960629
 30
0.0
 10
10.3101354419272
 20
1.456080314960632
 30
0.0
 10
10.3097969357687
 20
1.456080314960634
 30
0.0
  0
SPLINE
  5
14E
330
1F
100
AcDbEntity
  8
0
  6
Continuous
 62
     7
370
    25
100
AcDbSpline
210
0.0
220
0.0
230
1.0
 70
    24
 71
     3
 72
     9
 73
     5
 74
     0
 42
0.00000001
 43
0.00000001
 40
0.0
 40
0.0
 40
0.0
 40
0.0
 40
0.5806730171771619
 40
1.0
 40
1.0
 40
1.0
 40
1.0
 10
10.26720212652166
 20
1.457080314960633
 30
0.0
 10
10.26738511467486
 20
1.457080314960633
 30
0.0
 10
10.26770024582059
 20
1.457080314960633
 30
0.0
 10
10.27035497640573
 20
1.457080314960631
 30
0.0
 10
10.27146817657221
 20
1.45708031496063
 30
0.0
  0
SPLINE
  5
150
330
1F
100
AcDbEntity
  8
0
  6
Continuous
 62
     7
370
    25
100
AcDbSpline
210
0.0
220
0.0
230
1.0
 70
    24
 71
     3
 72
     9
 73
     5
 74
     0
 42
0.00000001
 43
0.00000001
 40
0.0
 40
0.0
 40
0.0
 40
0.0
 40
0.567797612421262
 40
1.0
 40
1.0
 40
1.0
 40
1.0
 10
10.43431989205425
 20
1.457080314960628
 30
0.0
 10
10.43232678661116
 20
1.457080314960629
 30
0.0
 10
10.42881654740007
 20
1.457080314960631
 30
0.0
 10
10.42270306836176
 20
1.457080314960632
 30
0.0
 10
10.42006080812499
 20
1.457080314960633
 30
0.0
  0
SPLINE
  5
151
330
1F
100
AcDbEntity
  8
0
  6
Continuous
 62
     7
370
    25
100
AcDbSpline
210
0.0
220
0.0
230
1.0
 70
    24
 71
     3
 72
     9
 73
     5
 74
     0
 42
0.00000001
 43
0.00000001
 40
0.0
 40
0.0
 40
0.0
 40
0.0
 40
0.5677976124212313
 40
1.0
 40
1.0
 40
1.0
 40
1.0
 10
10.43431989205426
 20
1.456080314960628
 30
0.0
 10
10.43232678661117
 20
1.45608031496063
 30
0.0
 10
10.42881654740007
 20
1.456080314960635
 30
0.0
 10
10.42270306836176
 20
1.456080314960633
 30
0.0
 10
10.42006080812499
 20
1.456080314960632
 30
0.0
  0
SPLINE
  5
153
330
1F
100
AcDbEntity
  8
0
  6
Continuous
 62
     7
370
    25
100
AcDbSpline
210
0.0
220
0.0
230
1.0
 70
    24
 71
     3
 72
     9
 73
     5
 74
     0
 42
0.00000001
 43
0.00000001
 40
0.0
 40
0.0
 40
0.0
 40
0.0
 40
0.5750074691244437
 40
1.0
 40
1.0
 40
1.0
 40
1.0
 10
10.4390947507621
 20
1.456080314960631
 30
0.0
 10
10.43887708066179
 20
1.456080314960633
 30
0.0
 10
10.43849852888291
 20
1.456080314960636
 30
0.0
 10
10.43556613679094
 20
1.456080314960631
 30
0.0
 10
10.43431989205426
 20
1.456080314960628
 30
0.0
  0
SPLINE
  5
15F
330
1F
100
AcDbEntity
  8
0
  6
Continuous
 62
     7
370
    25
100
AcDbSpline
210
0.0
220
0.0
230
1.0
 70
    24
 71
     3
 72
     9
 73
     5
 74
     0
 42
0.00000001
 43
0.00000001
 40
0.0
 40
0.0
 40
0.0
 40
0.0
 40
0.5690334213214536
 40
1.0
 40
1.0
 40
1.0
 40
1.0
 10
10.6219484591552
 20
1.45708031496063
 30
0.0
 10
10.63721462237472
 20
1.457080314960632
 30
0.0
 10
10.66404285890268
 20
1.457080314960636
 30
0.0
 10
10.69083139391231
 20
1.457080314960632
 30
0.0
 10
10.70237635719321
 20
1.457080314960629
 30
0.0
  0
SPLINE
  5
160
330
1F
100
AcDbEntity
  8
0
  6
Continuous
 62
     7
370
    25
100
AcDbSpline
210
0.0
220
0.0
230
1.0
 70
    24
 71
     3
 72
     9
 73
     5
 74
     0
 42
0.00000001
 43
0.00000001
 40
0.0
 40
0.0
 40
0.0
 40
0.0
 40
0.5690334213213804
 40
1.0
 40
1.0
 40
1.0
 40
1.0
 10
10.6219484591552
 20
1.456080314960628
 30
0.0
 10
10.63721462237472
 20
1.456080314960631
 30
0.0
 10
10.66404285890268
 20
1.456080314960635
 30
0.0
 10
10.69083139391231
 20
1.456080314960633
 30
0.0
 10
10.70237635719322
 20
1.456080314960632
 30
0.0
  0
SPLINE
  5
161
330
1F
100
AcDbEntity
  8
0
  6
Continuous
 62
     7
370
    25
100
AcDbSpline
210
0.0
220
0.0
230
1.0
 70
    24
 71
     3
 72
     9
 73
     5
 74
     0
 42
0.00000001
 43
0.00000001
 40
0.0
 40
0.0
 40
0.0
 40
0.0
 40
0.5707821318074789
 40
0.9999999999999999
 40
0.9999999999999999
 40
0.9999999999999999
 40
0.9999999999999999
 10
10.70237635719322
 20
1.456080314960632
 30
0.0
 10
10.70948309751195
 20
1.456080314960632
 30
0.0
 10
10.72193397836945
 20
1.456080314960629
 30
0.0
 10
10.73315103199747
 20
1.456080314960631
 30
0.0
 10
10.73796559184309
 20
1.456080314960631
 30
0.0
  0
SPLINE
  5
162
330
1F
100
AcDbEntity
  8
0
  6
Continuous
 62
     7
370
    25
100
AcDbSpline
210
0.0
220
0.0
230
1.0
 70
    24
 71
     3
 72
     9
 73
     5
 74
     0
 42
0.00000001
 43
0.00000001
 40
0.0
 40
0.0
 40
0.0
 40
0.0
 40
0.5707821318075195
 40
0.9999999999999999
 40
0.9999999999999999
 40
0.9999999999999999
 40
0.9999999999999999
 10
10.70237635719321
 20
1.457080314960629
 30
0.0
 10
10.70948309751194
 20
1.45708031496063
 30
0.0
 10
10.72193397836945
 20
1.457080314960631
 30
0.0
 10
10.73315103199747
 20
1.45708031496063
 30
0.0
 10
10.73796559184309
 20
1.45708031496063
 30
0.0
  0
SPLINE
  5
164
330
1F
100
AcDbEntity
  8
0
  6
Continuous
 62
     7
370
    25
100
AcDbSpline
210
0.0
220
0.0
230
1.0
 70
    24
 71
     3
 72
     9
 73
     5
 74
     0
 42
0.00000001
 43
0.00000001
 40
0.0
 40
0.0
 40
0.0
 40
0.0
 40
0.5471237248727102
 40
1.0
 40
1.0
 40
1.0
 40
1.0
 10
10.58737694135202
 20
1.456080314960628
 30
0.0
 10
10.59332426629657
 20
1.456080314960629
 30
0.0
 10
10.60419443089404
 20
1.456080314960632
 30
0.0
 10
10.61641434842254
 20
1.456080314960629
 30
0.0
 10
10.62194845915521
 20
1.456080314960628
 30
0.0
  0
SPLINE
  5
165
330
1F
100
AcDbEntity
  8
0
  6
Continuous
 62
     7
370
    25
100
AcDbSpline
210
0.0
220
0.0
230
1.0
 70
    24
 71
     3
 72
     9
 73
     5
 74
     0
 42
0.00000001
 43
0.00000001
 40
0.0
 40
0.0
 40
0.0
 40
0.0
 40
0.5471237248728544
 40
1.0
 40
1.0
 40
1.0
 40
1.0
 10
10.58737694135203
 20
1.457080314960628
 30
0.0
 10
10.59332426629657
 20
1.45708031496063
 30
0.0
 10
10.60419443089404
 20
1.457080314960632
 30
0.0
 10
10.61641434842254
 20
1.457080314960631
 30
0.0
 10
10.6219484591552
 20
1.45708031496063
 30
0.0
  0
SPLINE
  5
168
330
1F
100
AcDbEntity
  8
0
  6
Continuous
 62
     7
370
    25
100
AcDbSpline
210
0.0
220
0.0
230
1.0
 70
    24
 71
     3
 72
     9
 73
     5
 74
     0
 42
0.00000001
 43
0.00000001
 40
0.0
 40
0.0
 40
0.0
 40
0.0
 40
0.5597506044142556
 40
0.9999999999999999
 40
0.9999999999999999
 40
0.9999999999999999
 40
0.9999999999999999
 10
10.73796559184309
 20
1.456080314960631
 30
0.0
 10
10.74354498223886
 20
1.456080314960631
 30
0.0
 10
10.75351261845357
 20
1.456080314960631
 30
0.0
 10
10.76046270568738
 20
1.456080314960629
 30
0.0
 10
10.76352247739133
 20
1.456080314960628
 30
0.0
  0
SPLINE
  5
169
330
1F
100
AcDbEntity
  8
0
  6
Continuous
 62
     7
370
    25
100
AcDbSpline
210
0.0
220
0.0
230
1.0
 70
    24
 71
     3
 72
     9
 73
     5
 74
     0
 42
0.00000001
 43
0.00000001
 40
0.0
 40
0.0
 40
0.0
 40
0.0
 40
0.5597506044142851
 40
1.0
 40
1.0
 40
1.0
 40
1.0
 10
10.73796559184309
 20
1.45708031496063
 30
0.0
 10
10.74354498223885
 20
1.457080314960631
 30
0.0
 10
10.75351261845357
 20
1.457080314960632
 30
0.0
 10
10.76046270568738
 20
1.457080314960632
 30
0.0
 10
10.76352247739132
 20
1.457080314960633
 30
0.0
  0
SPLINE
  5
16B
330
1F
100
AcDbEntity
  8
0
  6
Continuous
 62
     7
370
    25
100
AcDbSpline
210
0.0
220
0.0
230
1.0
 70
    24
 71
     3
 72
     9
 73
     5
 74
     0
 42
0.00000001
 43
0.00000001
 40
0.0
 40
0.0
 40
0.0
 40
0.0
 40
0.564920835372408
 40
1.0
 40
1.0
 40
1.0
 40
1.0
 10
10.56332030480437
 20
1.45608031496063
 30
0.0
 10
10.56696861174165
 20
1.456080314960633
 30
0.0
 10
10.57342669703224
 20
1.456080314960636
 30
0.0
 10
10.5831475853732
 20
1.456080314960631
 30
0.0
 10
10.58737694135202
 20
1.456080314960628
 30
0.0
  0
SPLINE
  5
16C
330
1F
100
AcDbEntity
  8
0
  6
Continuous
 62
     7
370
    25
100
AcDbSpline
210
0.0
220
0.0
230
1.0
 70
    24
 71
     3
 72
     9
 73
     5
 74
     0
 42
0.00000001
 43
0.00000001
 40
0.0
 40
0.0
 40
0.0
 40
0.0
 40
0.5649208353725217
 40
0.9999999999999999
 40
0.9999999999999999
 40
0.9999999999999999
 40
0.9999999999999999
 10
10.56332030480438
 20
1.457080314960635
 30
0.0
 10
10.56696861174165
 20
1.457080314960632
 30
0.0
 10
10.57342669703224
 20
1.457080314960626
 30
0.0
 10
10.5831475853732
 20
1.457080314960628
 30
0.0
 10
10.58737694135203
 20
1.457080314960628
 30
0.0
  0
SPLINE
  5
16D
330
1F
100
AcDbEntity
  8
0
  6
Continuous
 62
     7
370
    25
100
AcDbSpline
210
0.0
220
0.0
230
1.0
 70
    24
 71
     3
 72
     9
 73
     5
 74
     0
 42
0.00000001
 43
0.00000001
 40
0.0
 40
0.0
 40
0.0
 40
0.0
 40
0.5201624703044293
 40
1.0
 40
1.0
 40
1.0
 40
1.0
 10
10.68659084729216
 20
1.456080314960633
 30
0.0
 10
10.67852850882354
 20
1.456080314960634
 30
0.0
 10
10.66302885452534
 20
1.456080314960635
 30
0.0
 10
10.64762847616203
 20
1.456080314960631
 30
0.0
 10
10.6402387966518
 20
1.456080314960629
 30
0.0
  0
SPLINE
  5
16E
330
1F
100
AcDbEntity
  8
0
  6
Continuous
 62
     7
370
    25
100
AcDbSpline
210
0.0
220
0.0
230
1.0
 70
    24
 71
     3
 72
     9
 73
     5
 74
     0
 42
0.00000001
 43
0.00000001
 40
0.0
 40
0.0
 40
0.0
 40
0.0
 40
0.5201624703046044
 40
1.0
 40
1.0
 40
1.0
 40
1.0
 10
10.68659084729216
 20
1.457080314960628
 30
0.0
 10
10.67852850882354
 20
1.45708031496063
 30
0.0
 10
10.66302885452534
 20
1.457080314960634
 30
0.0
 10
10.64762847616203
 20
1.457080314960628
 30
0.0
 10
10.64023879665181
 20
1.457080314960625
 30
0.0
  0
SPLINE
  5
170
330
1F
100
AcDbEntity
  8
0
  6
Continuous
 62
     7
370
    25
100
AcDbSpline
210
0.0
220
0.0
230
1.0
 70
    24
 71
     3
 72
     9
 73
     5
 74
     0
 42
0.00000001
 43
0.00000001
 40
0.0
 40
0.0
 40
0.0
 40
0.0
 40
0.5478538720942665
 40
1.0
 40
1.0
 40
1.0
 40
1.0
 10
10.70690328116603
 20
1.456080314960632
 30
0.0
 10
10.70329183313631
 20
1.456080314960633
 30
0.0
 10
10.69669984170633
 20
1.456080314960633
 30
0.0
 10
10.6897384249316
 20
1.456080314960634
 30
0.0
 10
10.68659084729216
 20
1.456080314960633
 30
0.0
  0
SPLINE
  5
172
330
1F
100
AcDbEntity
  8
0
  6
Continuous
 62
     7
370
    25
100
AcDbSpline
210
0.0
220
0.0
230
1.0
 70
    24
 71
     3
 72
     9
 73
     5
 74
     0
 42
0.00000001
 43
0.00000001
 40
0.0
 40
0.0
 40
0.0
 40
0.0
 40
0.572080256067171
 40
1.0
 40
1.0
 40
1.0
 40
1.0
 10
10.6402387966518
 20
1.456080314960629
 30
0.0
 10
10.63583979926445
 20
1.456080314960629
 30
0.0
 10
10.62815032328499
 20
1.456080314960628
 30
0.0
 10
10.62117583747568
 20
1.456080314960632
 30
0.0
 10
10.6181913172941
 20
1.456080314960633
 30
0.0
  0
SPLINE
  5
173
330
1F
100
AcDbEntity
  8
0
  6
Continuous
 62
     7
370
    25
100
AcDbSpline
210
0.0
220
0.0
230
1.0
 70
    24
 71
     3
 72
     9
 73
     5
 74
     0
 42
0.00000001
 43
0.00000001
 40
0.0
 40
0.0
 40
0.0
 40
0.0
 40
0.5720802560671773
 40
1.0
 40
1.0
 40
1.0
 40
1.0
 10
10.64023879665181
 20
1.457080314960625
 30
0.0
 10
10.63583979926445
 20
1.457080314960627
 30
0.0
 10
10.62815032328499
 20
1.45708031496063
 30
0.0
 10
10.62117583747569
 20
1.457080314960633
 30
0.0
 10
10.6181913172941
 20
1.457080314960633
 30
0.0
  0
SPLINE
  5
175
330
1F
100
AcDbEntity
  8
0
  6
Continuous
 62
     7
370
    25
100
AcDbSpline
210
0.0
220
0.0
230
1.0
 70
    24
 71
     3
 72
    11
 73
     7
 74
     0
 42
0.00000001
 43
0.00000001
 40
0.0
 40
0.0
 40
0.0
 40
0.0
 40
0.2938510984363941
 40
0.6177999365185509
 40
0.819229989387257
 40
0.9999999999999999
 40
0.9999999999999999
 40
0.9999999999999999
 40
0.9999999999999999
 10
10.76352247739133
 20
1.456080314960628
 30
0.0
 10
10.76659447054701
 20
1.456080314960629
 30
0.0
 10
10.77305310618479
 20
1.456080314960631
 30
0.0
 10
10.77380131904808
 20
1.456080314960629
 30
0.0
 10
10.77188615570422
 20
1.456080314960633
 30
0.0
 10
10.7679085852806
 20
1.456080314960631
 30
0.0
 10
10.76602730498687
 20
1.45608031496063
 30
0.0
  0
SPLINE
  5
176
330
1F
100
AcDbEntity
  8
0
  6
Continuous
 62
     7
370
    25
100
AcDbSpline
210
0.0
220
0.0
230
1.0
 70
    24
 71
     3
 72
    11
 73
     7
 74
     0
 42
0.00000001
 43
0.00000001
 40
0.0
 40
0.0
 40
0.0
 40
0.0
 40
0.2938510984364536
 40
0.6177999365186424
 40
0.8192299893872097
 40
1.0
 40
1.0
 40
1.0
 40
1.0
 10
10.76352247739132
 20
1.457080314960633
 30
0.0
 10
10.766594470547
 20
1.457080314960631
 30
0.0
 10
10.77305310618479
 20
1.457080314960626
 30
0.0
 10
10.77380131904808
 20
1.457080314960624
 30
0.0
 10
10.77188615570422
 20
1.457080314960628
 30
0.0
 10
10.76790858528061
 20
1.457080314960629
 30
0.0
 10
10.76602730498688
 20
1.457080314960629
 30
0.0
  0
SPLINE
  5
178
330
1F
100
AcDbEntity
  8
0
  6
Continuous
 62
     7
370
    25
100
AcDbSpline
210
0.0
220
0.0
230
1.0
 70
    24
 71
     3
 72
     9
 73
     5
 74
     0
 42
0.00000001
 43
0.00000001
 40
0.0
 40
0.0
 40
0.0
 40
0.0
 40
0.5560881808554844
 40
1.0
 40
1.0
 40
1.0
 40
1.0
 10
10.72218008194206
 20
1.456080314960632
 30
0.0
 10
10.71974440000038
 20
1.456080314960633
 30
0.0
 10
10.71536437175031
 20
1.456080314960633
 30
0.0
 10
10.70950453289305
 20
1.456080314960633
 30
0.0
 10
10.70690328116604
 20
1.456080314960633
 30
0.0
  0
SPLINE
  5
179
330
1F
100
AcDbEntity
  8
0
  6
Continuous
 62
     7
370
    25
100
AcDbSpline
210
0.0
220
0.0
230
1.0
 70
    24
 71
     3
 72
     9
 73
     5
 74
     0
 42
0.00000001
 43
0.00000001
 40
0.0
 40
0.0
 40
0.0
 40
0.0
 40
0.5560881808554672
 40
1.0
 40
1.0
 40
1.0
 40
1.0
 10
10.72218008194205
 20
1.457080314960634
 30
0.0
 10
10.71974440000038
 20
1.457080314960633
 30
0.0
 10
10.71536437175031
 20
1.457080314960631
 30
0.0
 10
10.70950453289306
 20
1.457080314960629
 30
0.0
 10
10.70690328116604
 20
1.457080314960628
 30
0.0
  0
SPLINE
  5
17B
330
1F
100
AcDbEntity
  8
0
  6
Continuous
 62
     7
370
    25
100
AcDbSpline
210
0.0
220
0.0
230
1.0
 70
    24
 71
     3
 72
     9
 73
     5
 74
     0
 42
0.00000001
 43
0.00000001
 40
0.0
 40
0.0
 40
0.0
 40
0.0
 40
0.5888612228155907
 40
1.0
 40
1.0
 40
1.0
 40
1.0
 10
10.55328795570269
 20
1.456080314960629
 30
0.0
 10
10.55396331365067
 20
1.456080314960629
 30
0.0
 10
10.5551102017829
 20
1.45608031496063
 30
0.0
 10
10.5609282709581
 20
1.45608031496063
 30
0.0
 10
10.56332030480437
 20
1.45608031496063
 30
0.0
  0
SPLINE
  5
17C
330
1F
100
AcDbEntity
  8
0
  6
Continuous
 62
     7
370
    25
100
AcDbSpline
210
0.0
220
0.0
230
1.0
 70
    24
 71
     3
 72
     9
 73
     5
 74
     0
 42
0.00000001
 43
0.00000001
 40
0.0
 40
0.0
 40
0.0
 40
0.0
 40
0.5888612228155611
 40
1.0
 40
1.0
 40
1.0
 40
1.0
 10
10.5532879557027
 20
1.457080314960632
 30
0.0
 10
10.55396331365067
 20
1.457080314960633
 30
0.0
 10
10.55511020178289
 20
1.457080314960634
 30
0.0
 10
10.56092827095811
 20
1.457080314960635
 30
0.0
 10
10.56332030480438
 20
1.457080314960635
 30
0.0
  0
SPLINE
  5
17E
330
1F
100
AcDbEntity
  8
0
  6
Continuous
 62
     7
370
    25
100
AcDbSpline
210
0.0
220
0.0
230
1.0
 70
    24
 71
     3
 72
     9
 73
     5
 74
     0
 42
0.00000001
 43
0.00000001
 40
0.0
 40
0.0
 40
0.0
 40
0.0
 40
0.5576103512582203
 40
1.0
 40
1.0
 40
1.0
 40
1.0
 10
10.6181913172941
 20
1.456080314960633
 30
0.0
 10
10.61473640885456
 20
1.456080314960633
 30
0.0
 10
10.60854049008844
 20
1.456080314960631
 30
0.0
 10
10.60428735176292
 20
1.456080314960628
 30
0.0
 10
10.60240580739305
 20
1.456080314960627
 30
0.0
  0
SPLINE
  5
17F
330
1F
100
AcDbEntity
  8
0
  6
Continuous
 62
     7
370
    25
100
AcDbSpline
210
0.0
220
0.0
230
1.0
 70
    24
 71
     3
 72
     9
 73
     5
 74
     0
 42
0.00000001
 43
0.00000001
 40
0.0
 40
0.0
 40
0.0
 40
0.0
 40
0.557610351258229
 40
1.0
 40
1.0
 40
1.0
 40
1.0
 10
10.6181913172941
 20
1.457080314960633
 30
0.0
 10
10.61473640885456
 20
1.457080314960633
 30
0.0
 10
10.60854049008845
 20
1.457080314960633
 30
0.0
 10
10.60428735176292
 20
1.457080314960631
 30
0.0
 10
10.60240580739305
 20
1.45708031496063
 30
0.0
  0
SPLINE
  5
181
330
1F
100
AcDbEntity
  8
0
  6
Continuous
 62
     7
370
    25
100
AcDbSpline
210
0.0
220
0.0
230
1.0
 70
    24
 71
     3
 72
    12
 73
     8
 74
     0
 42
0.00000001
 43
0.00000001
 40
0.0
 40
0.0
 40
0.0
 40
0.0
 40
0.2127649682794278
 40
0.4233051586768656
 40
0.6371633648581472
 40
0.8264777580874326
 40
1.0
 40
1.0
 40
1.0
 40
1.0
 10
10.71567017775043
 20
1.456080314960632
 30
0.0
 10
10.71844258936115
 20
1.456080314960632
 30
0.0
 10
10.72395842284768
 20
1.456080314960632
 30
0.0
 10
10.72798744058039
 20
1.456080314960634
 30
0.0
 10
10.72847263365632
 20
1.456080314960634
 30
0.0
 10
10.72697339553588
 20
1.456080314960635
 30
0.0
 10
10.7237308095548
 20
1.456080314960633
 30
0.0
 10
10.72218008194206
 20
1.456080314960632
 30
0.0
  0
SPLINE
  5
182
330
1F
100
AcDbEntity
  8
0
  6
Continuous
 62
     7
370
    25
100
AcDbSpline
210
0.0
220
0.0
230
1.0
 70
    24
 71
     3
 72
    12
 73
     8
 74
     0
 42
0.00000001
 43
0.00000001
 40
0.0
 40
0.0
 40
0.0
 40
0.0
 40
0.2127649682792595
 40
0.4233051586766978
 40
0.6371633648580327
 40
0.8264777580874707
 40
1.0
 40
1.0
 40
1.0
 40
1.0
 10
10.71567017775043
 20
1.457080314960628
 30
0.0
 10
10.71844258936115
 20
1.457080314960629
 30
0.0
 10
10.72395842284768
 20
1.457080314960632
 30
0.0
 10
10.72798744058038
 20
1.457080314960629
 30
0.0
 10
10.72847263365633
 20
1.45708031496063
 30
0.0
 10
10.72697339553587
 20
1.457080314960631
 30
0.0
 10
10.7237308095548
 20
1.457080314960633
 30
0.0
 10
10.72218008194205
 20
1.457080314960634
 30
0.0
  0
SPLINE
  5
184
330
1F
100
AcDbEntity
  8
0
  6
Continuous
 62
     7
370
    25
100
AcDbSpline
210
0.0
220
0.0
230
1.0
 70
    24
 71
     3
 72
     9
 73
     5
 74
     0
 42
0.00000001
 43
0.00000001
 40
0.0
 40
0.0
 40
0.0
 40
0.0
 40
0.5329023985918451
 40
1.0
 40
1.0
 40
1.0
 40
1.0
 10
10.60240580739305
 20
1.456080314960627
 30
0.0
 10
10.60044505366997
 20
1.456080314960629
 30
0.0
 10
10.59676566748543
 20
1.456080314960634
 30
0.0
 10
10.59617282057248
 20
1.456080314960634
 30
0.0
 10
10.59589590320144
 20
1.456080314960634
 30
0.0
  0
SPLINE
  5
185
330
1F
100
AcDbEntity
  8
0
  6
Continuous
 62
     7
370
    25
100
AcDbSpline
210
0.0
220
0.0
230
1.0
 70
    24
 71
     3
 72
     9
 73
     5
 74
     0
 42
0.00000001
 43
0.00000001
 40
0.0
 40
0.0
 40
0.0
 40
0.0
 40
0.5329023985918097
 40
1.0
 40
1.0
 40
1.0
 40
1.0
 10
10.60240580739305
 20
1.45708031496063
 30
0.0
 10
10.60044505366996
 20
1.457080314960631
 30
0.0
 10
10.59676566748542
 20
1.457080314960633
 30
0.0
 10
10.59617282057247
 20
1.457080314960633
 30
0.0
 10
10.59589590320143
 20
1.457080314960633
 30
0.0
  0
SPLINE
  5
18B
330
1F
100
AcDbEntity
  8
0
  6
Continuous
 62
     7
370
    25
100
AcDbSpline
210
0.0
220
0.0
230
1.0
 70
    24
 71
     3
 72
     9
 73
     5
 74
     0
 42
0.00000001
 43
0.00000001
 40
0.0
 40
0.0
 40
0.0
 40
0.0
 40
0.5911709892456709
 40
1.0
 40
1.0
 40
1.0
 40
1.0
 10
10.68433395443156
 20
1.456080314960626
 30
0.0
 10
10.69083393318754
 20
1.456080314960627
 30
0.0
 10
10.70182902407364
 20
1.456080314960629
 30
0.0
 10
10.71165360432514
 20
1.456080314960631
 30
0.0
 10
10.71567017775043
 20
1.456080314960632
 30
0.0
  0
SPLINE
  5
18C
330
1F
100
AcDbEntity
  8
0
  6
Continuous
 62
     7
370
    25
100
AcDbSpline
210
0.0
220
0.0
230
1.0
 70
    24
 71
     3
 72
     9
 73
     5
 74
     0
 42
0.00000001
 43
0.00000001
 40
0.0
 40
0.0
 40
0.0
 40
0.0
 40
0.5911709892453902
 40
0.9999999999999999
 40
0.9999999999999999
 40
0.9999999999999999
 40
0.9999999999999999
 10
10.68433395443157
 20
1.45708031496063
 30
0.0
 10
10.69083393318754
 20
1.457080314960631
 30
0.0
 10
10.70182902407365
 20
1.457080314960632
 30
0.0
 10
10.71165360432513
 20
1.457080314960629
 30
0.0
 10
10.71567017775043
 20
1.457080314960628
 30
0.0
  0
SPLINE
  5
18E
330
1F
100
AcDbEntity
  8
0
  6
Continuous
 62
     7
370
    25
100
AcDbSpline
210
0.0
220
0.0
230
1.0
 70
    24
 71
     3
 72
     9
 73
     5
 74
     0
 42
0.00000001
 43
0.00000001
 40
0.0
 40
0.0
 40
0.0
 40
0.0
 40
0.5602072701445934
 40
1.0
 40
1.0
 40
1.0
 40
1.0
 10
10.76602730498687
 20
1.45608031496063
 30
0.0
 10
10.76307801762821
 20
1.456080314960632
 30
0.0
 10
10.75781338163392
 20
1.456080314960636
 30
0.0
 10
10.75028927256513
 20
1.45608031496063
 30
0.0
 10
10.74698022409804
 20
1.456080314960628
 30
0.0
  0
SPLINE
  5
18F
330
1F
100
AcDbEntity
  8
0
  6
Continuous
 62
     7
370
    25
100
AcDbSpline
210
0.0
220
0.0
230
1.0
 70
    24
 71
     3
 72
     9
 73
     5
 74
     0
 42
0.00000001
 43
0.00000001
 40
0.0
 40
0.0
 40
0.0
 40
0.0
 40
0.5602072701447899
 40
1.0
 40
1.0
 40
1.0
 40
1.0
 10
10.76602730498688
 20
1.457080314960629
 30
0.0
 10
10.76307801762822
 20
1.457080314960631
 30
0.0
 10
10.75781338163393
 20
1.457080314960634
 30
0.0
 10
10.75028927256513
 20
1.45708031496063
 30
0.0
 10
10.74698022409804
 20
1.457080314960628
 30
0.0
  0
SPLINE
  5
192
330
1F
100
AcDbEntity
  8
0
  6
Continuous
 62
     7
370
    25
100
AcDbSpline
210
0.0
220
0.0
230
1.0
 70
    24
 71
     3
 72
     9
 73
     5
 74
     0
 42
0.00000001
 43
0.00000001
 40
0.0
 40
0.0
 40
0.0
 40
0.0
 40
0.5473376006429596
 40
1.0
 40
1.0
 40
1.0
 40
1.0
 10
10.60266668131533
 20
1.456080314960634
 30
0.0
 10
10.60996009261204
 20
1.456080314960633
 30
0.0
 10
10.62328534431799
 20
1.456080314960628
 30
0.0
 10
10.63720111979226
 20
1.456080314960628
 30
0.0
 10
10.64350026810736
 20
1.456080314960629
 30
0.0
  0
SPLINE
  5
193
330
1F
100
AcDbEntity
  8
0
  6
Continuous
 62
     7
370
    25
100
AcDbSpline
210
0.0
220
0.0
230
1.0
 70
    24
 71
     3
 72
     9
 73
     5
 74
     0
 42
0.00000001
 43
0.00000001
 40
0.0
 40
0.0
 40
0.0
 40
0.0
 40
0.5473376006431058
 40
1.0
 40
1.0
 40
1.0
 40
1.0
 10
10.60266668131532
 20
1.457080314960634
 30
0.0
 10
10.60996009261203
 20
1.457080314960632
 30
0.0
 10
10.62328534431799
 20
1.457080314960629
 30
0.0
 10
10.63720111979226
 20
1.457080314960632
 30
0.0
 10
10.64350026810735
 20
1.457080314960633
 30
0.0
  0
SPLINE
  5
195
330
1F
100
AcDbEntity
  8
0
  6
Continuous
 62
     7
370
    25
100
AcDbSpline
210
0.0
220
0.0
230
1.0
 70
    24
 71
     3
 72
     9
 73
     5
 74
     0
 42
0.00000001
 43
0.00000001
 40
0.0
 40
0.0
 40
0.0
 40
0.0
 40
0.5458096279349303
 40
1.0
 40
1.0
 40
1.0
 40
1.0
 10
10.74698022409804
 20
1.457080314960628
 30
0.0
 10
10.74231332774482
 20
1.457080314960628
 30
0.0
 10
10.73376291728232
 20
1.457080314960628
 30
0.0
 10
10.72424571238338
 20
1.457080314960632
 30
0.0
 10
10.7199230895493
 20
1.457080314960634
 30
0.0
  0
SPLINE
  5
197
330
1F
100
AcDbEntity
  8
0
  6
Continuous
 62
     7
370
    25
100
AcDbSpline
210
0.0
220
0.0
230
1.0
 70
    24
 71
     3
 72
     9
 73
     5
 74
     0
 42
0.00000001
 43
0.00000001
 40
0.0
 40
0.0
 40
0.0
 40
0.0
 40
0.5492636938377242
 40
1.0
 40
1.0
 40
1.0
 40
1.0
 10
10.57133045799654
 20
1.456080314960628
 30
0.0
 10
10.57642031592755
 20
1.456080314960629
 30
0.0
 10
10.58568700875309
 20
1.456080314960631
 30
0.0
 10
10.59739118441211
 20
1.456080314960633
 30
0.0
 10
10.60266668131533
 20
1.456080314960634
 30
0.0
  0
SPLINE
  5
198
330
1F
100
AcDbEntity
  8
0
  6
Continuous
 62
     7
370
    25
100
AcDbSpline
210
0.0
220
0.0
230
1.0
 70
    24
 71
     3
 72
     9
 73
     5
 74
     0
 42
0.00000001
 43
0.00000001
 40
0.0
 40
0.0
 40
0.0
 40
0.0
 40
0.549263693837757
 40
0.9999999999999999
 40
0.9999999999999999
 40
0.9999999999999999
 40
0.9999999999999999
 10
10.57133045799654
 20
1.457080314960632
 30
0.0
 10
10.57642031592755
 20
1.457080314960632
 30
0.0
 10
10.58568700875308
 20
1.457080314960633
 30
0.0
 10
10.5973911844121
 20
1.457080314960633
 30
0.0
 10
10.60266668131532
 20
1.457080314960634
 30
0.0
  0
SPLINE
  5
19A
330
1F
100
AcDbEntity
  8
0
  6
Continuous
 62
     7
370
    25
100
AcDbSpline
210
0.0
220
0.0
230
1.0
 70
    24
 71
     3
 72
     9
 73
     5
 74
     0
 42
0.00000001
 43
0.00000001
 40
0.0
 40
0.0
 40
0.0
 40
0.0
 40
0.5573705715640087
 40
0.9999999999999999
 40
0.9999999999999999
 40
0.9999999999999999
 40
0.9999999999999999
 10
10.7199230895493
 20
1.457080314960634
 30
0.0
 10
10.71416106625503
 20
1.457080314960633
 30
0.0
 10
10.70382319843738
 20
1.457080314960632
 30
0.0
 10
10.69327073556138
 20
1.457080314960632
 30
0.0
 10
10.68859990494998
 20
1.457080314960633
 30
0.0
  0
SPLINE
  5
19C
330
1F
100
AcDbEntity
  8
0
  6
Continuous
 62
     7
370
    25
100
AcDbSpline
210
0.0
220
0.0
230
1.0
 70
    24
 71
     3
 72
     9
 73
     5
 74
     0
 42
0.00000001
 43
0.00000001
 40
0.0
 40
0.0
 40
0.0
 40
0.0
 40
0.560548049070655
 40
1.0
 40
1.0
 40
1.0
 40
1.0
 10
10.68859990494998
 20
1.457080314960633
 30
0.0
 10
10.68298970467109
 20
1.457080314960632
 30
0.0
 10
10.67298128471818
 20
1.457080314960629
 30
0.0
 10
10.66295030602454
 20
1.457080314960632
 30
0.0
 10
10.6585421728679
 20
1.457080314960633
 30
0.0
  0
SPLINE
  5
19E
330
1F
100
AcDbEntity
  8
0
  6
Continuous
 62
     7
370
    25
100
AcDbSpline
210
0.0
220
0.0
230
1.0
 70
    24
 71
     3
 72
    11
 73
     7
 74
     0
 42
0.00000001
 43
0.00000001
 40
0.0
 40
0.0
 40
0.0
 40
0.0
 40
0.2450422980411881
 40
0.5318742732901325
 40
0.7808311536343184
 40
1.0
 40
1.0
 40
1.0
 40
1.0
 10
10.56757321660318
 20
1.456080314960629
 30
0.0
 10
10.56481746675246
 20
1.456080314960629
 30
0.0
 10
10.5588359996305
 20
1.45608031496063
 30
0.0
 10
10.55833863638467
 20
1.456080314960631
 30
0.0
 10
10.56116536887798
 20
1.456080314960632
 30
0.0
 10
10.56808894999896
 20
1.456080314960629
 30
0.0
 10
10.57133045799654
 20
1.456080314960628
 30
0.0
  0
SPLINE
  5
19F
330
1F
100
AcDbEntity
  8
0
  6
Continuous
 62
     7
370
    25
100
AcDbSpline
210
0.0
220
0.0
230
1.0
 70
    24
 71
     3
 72
    11
 73
     7
 74
     0
 42
0.00000001
 43
0.00000001
 40
0.0
 40
0.0
 40
0.0
 40
0.0
 40
0.2450422980410768
 40
0.5318742732899854
 40
0.7808311536342395
 40
1.0
 40
1.0
 40
1.0
 40
1.0
 10
10.56757321660318
 20
1.457080314960625
 30
0.0
 10
10.56481746675246
 20
1.457080314960627
 30
0.0
 10
10.55883599963051
 20
1.457080314960631
 30
0.0
 10
10.55833863638467
 20
1.457080314960636
 30
0.0
 10
10.56116536887797
 20
1.457080314960632
 30
0.0
 10
10.56808894999896
 20
1.457080314960632
 30
0.0
 10
10.57133045799654
 20
1.457080314960632
 30
0.0
  0
SPLINE
  5
1A1
330
1F
100
AcDbEntity
  8
0
  6
Continuous
 62
     7
370
    25
100
AcDbSpline
210
0.0
220
0.0
230
1.0
 70
    24
 71
     3
 72
     9
 73
     5
 74
     0
 42
0.00000001
 43
0.00000001
 40
0.0
 40
0.0
 40
0.0
 40
0.0
 40
0.5814361705901515
 40
1.0
 40
1.0
 40
1.0
 40
1.0
 10
10.6585421728679
 20
1.457080314960633
 30
0.0
 10
10.65320374502529
 20
1.457080314960631
 30
0.0
 10
10.64402229379706
 20
1.457080314960629
 30
0.0
 10
10.63518430200705
 20
1.457080314960633
 30
0.0
 10
10.63148503831913
 20
1.457080314960634
 30
0.0
  0
SPLINE
  5
1A3
330
1F
100
AcDbEntity
  8
0
  6
Continuous
 62
     7
370
    25
100
AcDbSpline
210
0.0
220
0.0
230
1.0
 70
    24
 71
     3
 72
     9
 73
     5
 74
     0
 42
0.00000001
 43
0.00000001
 40
0.0
 40
0.0
 40
0.0
 40
0.0
 40
0.5844516101951932
 40
1.0
 40
1.0
 40
1.0
 40
1.0
 10
10.63148503831913
 20
1.45608031496063
 30
0.0
 10
10.62729961042443
 20
1.456080314960633
 30
0.0
 10
10.62013831970045
 20
1.456080314960637
 30
0.0
 10
10.61416402263024
 20
1.456080314960629
 30
0.0
 10
10.6116814131025
 20
1.456080314960627
 30
0.0
  0
SPLINE
  5
1A4
330
1F
100
AcDbEntity
  8
0
  6
Continuous
 62
     7
370
    25
100
AcDbSpline
210
0.0
220
0.0
230
1.0
 70
    24
 71
     3
 72
     9
 73
     5
 74
     0
 42
0.00000001
 43
0.00000001
 40
0.0
 40
0.0
 40
0.0
 40
0.0
 40
0.5844516101950831
 40
1.0
 40
1.0
 40
1.0
 40
1.0
 10
10.63148503831913
 20
1.457080314960634
 30
0.0
 10
10.62729961042443
 20
1.457080314960632
 30
0.0
 10
10.62013831970045
 20
1.457080314960629
 30
0.0
 10
10.61416402263024
 20
1.457080314960627
 30
0.0
 10
10.6116814131025
 20
1.457080314960626
 30
0.0
  0
SPLINE
  5
1A6
330
1F
100
AcDbEntity
  8
0
  6
Continuous
 62
     7
370
    25
100
AcDbSpline
210
0.0
220
0.0
230
1.0
 70
    24
 71
     3
 72
    11
 73
     7
 74
     0
 42
0.00000001
 43
0.00000001
 40
0.0
 40
0.0
 40
0.0
 40
0.0
 40
0.298604717633656
 40
0.6022291801903263
 40
0.8105540532955691
 40
1.0
 40
1.0
 40
1.0
 40
1.0
 10
10.6116814131025
 20
1.456080314960627
 30
0.0
 10
10.60922967545431
 20
1.456080314960628
 30
0.0
 10
10.60428498480905
 20
1.45608031496063
 30
0.0
 10
10.60355509480767
 20
1.456080314960631
 30
0.0
 10
10.60490576403674
 20
1.456080314960627
 30
0.0
 10
10.60762196804094
 20
1.456080314960629
 30
0.0
 10
10.6089156120525
 20
1.45608031496063
 30
0.0
  0
SPLINE
  5
1A7
330
1F
100
AcDbEntity
  8
0
  6
Continuous
 62
     7
370
    25
100
AcDbSpline
210
0.0
220
0.0
230
1.0
 70
    24
 71
     3
 72
    11
 73
     7
 74
     0
 42
0.00000001
 43
0.00000001
 40
0.0
 40
0.0
 40
0.0
 40
0.0
 40
0.298604717633481
 40
0.6022291801903852
 40
0.8105540532952981
 40
0.9999999999999999
 40
0.9999999999999999
 40
0.9999999999999999
 40
0.9999999999999999
 10
10.6116814131025
 20
1.457080314960626
 30
0.0
 10
10.6092296754543
 20
1.457080314960629
 30
0.0
 10
10.60428498480904
 20
1.457080314960635
 30
0.0
 10
10.60355509480768
 20
1.457080314960634
 30
0.0
 10
10.60490576403675
 20
1.457080314960628
 30
0.0
 10
10.60762196804095
 20
1.457080314960628
 30
0.0
 10
10.6089156120525
 20
1.457080314960628
 30
0.0
  0
SPLINE
  5
1A8
330
1F
100
AcDbEntity
  8
0
  6
Continuous
 62
     7
370
    25
100
AcDbSpline
210
0.0
220
0.0
230
1.0
 70
    24
 71
     3
 72
     9
 73
     5
 74
     0
 42
0.00000001
 43
0.00000001
 40
0.0
 40
0.0
 40
0.0
 40
0.0
 40
0.594048636488364
 40
1.0
 40
1.0
 40
1.0
 40
1.0
 10
10.76177429365581
 20
1.456080314960634
 30
0.0
 10
10.76098421239712
 20
1.456080314960633
 30
0.0
 10
10.75965421816743
 20
1.456080314960633
 30
0.0
 10
10.75402658816085
 20
1.456080314960631
 30
0.0
 10
10.75174204408634
 20
1.45608031496063
 30
0.0
  0
SPLINE
  5
1A9
330
1F
100
AcDbEntity
  8
0
  6
Continuous
 62
     7
370
    25
100
AcDbSpline
210
0.0
220
0.0
230
1.0
 70
    24
 71
     3
 72
     9
 73
     5
 74
     0
 42
0.00000001
 43
0.00000001
 40
0.0
 40
0.0
 40
0.0
 40
0.0
 40
0.5940486364884414
 40
1.0
 40
1.0
 40
1.0
 40
1.0
 10
10.76177429365582
 20
1.457080314960628
 30
0.0
 10
10.76098421239713
 20
1.457080314960629
 30
0.0
 10
10.75965421816743
 20
1.45708031496063
 30
0.0
 10
10.75402658816084
 20
1.457080314960632
 30
0.0
 10
10.75174204408633
 20
1.457080314960633
 30
0.0
  0
SPLINE
  5
1AE
330
1F
100
AcDbEntity
  8
0
  6
Continuous
 62
     7
370
    25
100
AcDbSpline
210
0.0
220
0.0
230
1.0
 70
    24
 71
     3
 72
     9
 73
     5
 74
     0
 42
0.00000001
 43
0.00000001
 40
0.0
 40
0.0
 40
0.0
 40
0.0
 40
0.5286371026093487
 40
1.0
 40
1.0
 40
1.0
 40
1.0
 10
10.71265654149762
 20
1.456080314960634
 30
0.0
 10
10.71448422948879
 20
1.456080314960633
 30
0.0
 10
10.71794158800968
 20
1.456080314960631
 30
0.0
 10
10.71877405271419
 20
1.45608031496063
 30
0.0
 10
10.71916644568928
 20
1.45608031496063
 30
0.0
  0
SPLINE
  5
1AF
330
1F
100
AcDbEntity
  8
0
  6
Continuous
 62
     7
370
    25
100
AcDbSpline
210
0.0
220
0.0
230
1.0
 70
    24
 71
     3
 72
     9
 73
     5
 74
     0
 42
0.00000001
 43
0.00000001
 40
0.0
 40
0.0
 40
0.0
 40
0.0
 40
0.5286371026092553
 40
1.0
 40
1.0
 40
1.0
 40
1.0
 10
10.71265654149762
 20
1.457080314960632
 30
0.0
 10
10.71448422948879
 20
1.457080314960632
 30
0.0
 10
10.71794158800968
 20
1.457080314960632
 30
0.0
 10
10.71877405271419
 20
1.457080314960629
 30
0.0
 10
10.71916644568928
 20
1.457080314960628
 30
0.0
  0
SPLINE
  5
1B1
330
1F
100
AcDbEntity
  8
0
  6
Continuous
 62
     7
370
    25
100
AcDbSpline
210
0.0
220
0.0
230
1.0
 70
    24
 71
     3
 72
     9
 73
     5
 74
     0
 42
0.00000001
 43
0.00000001
 40
0.0
 40
0.0
 40
0.0
 40
0.0
 40
0.5581563775260605
 40
1.0
 40
1.0
 40
1.0
 40
1.0
 10
10.69863225405165
 20
1.456080314960626
 30
0.0
 10
10.70165669205997
 20
1.456080314960627
 30
0.0
 10
10.70707531331039
 20
1.456080314960629
 30
0.0
 10
10.71094621033433
 20
1.456080314960632
 30
0.0
 10
10.71265654149762
 20
1.456080314960634
 30
0.0
  0
SPLINE
  5
1B2
330
1F
100
AcDbEntity
  8
0
  6
Continuous
 62
     7
370
    25
100
AcDbSpline
210
0.0
220
0.0
230
1.0
 70
    24
 71
     3
 72
     9
 73
     5
 74
     0
 42
0.00000001
 43
0.00000001
 40
0.0
 40
0.0
 40
0.0
 40
0.0
 40
0.5581563775261967
 40
1.0
 40
1.0
 40
1.0
 40
1.0
 10
10.69863225405164
 20
1.457080314960634
 30
0.0
 10
10.70165669205996
 20
1.457080314960633
 30
0.0
 10
10.70707531331038
 20
1.45708031496063
 30
0.0
 10
10.71094621033433
 20
1.457080314960631
 30
0.0
 10
10.71265654149762
 20
1.457080314960632
 30
0.0
  0
SPLINE
  5
1B4
330
1F
100
AcDbEntity
  8
0
  6
Continuous
 62
     7
370
    25
100
AcDbSpline
210
0.0
220
0.0
230
1.0
 70
    24
 71
     3
 72
     9
 73
     5
 74
     0
 42
0.00000001
 43
0.00000001
 40
0.0
 40
0.0
 40
0.0
 40
0.0
 40
0.5465682385870924
 40
1.0
 40
1.0
 40
1.0
 40
1.0
 10
10.6089156120525
 20
1.45608031496063
 30
0.0
 10
10.61098978760399
 20
1.45608031496063
 30
0.0
 10
10.61478469445196
 20
1.456080314960629
 30
0.0
 10
10.61971355653784
 20
1.456080314960629
 30
0.0
 10
10.62194845915521
 20
1.456080314960629
 30
0.0
  0
SPLINE
  5
1B5
330
1F
100
AcDbEntity
  8
0
  6
Continuous
 62
     7
370
    25
100
AcDbSpline
210
0.0
220
0.0
230
1.0
 70
    24
 71
     3
 72
     9
 73
     5
 74
     0
 42
0.00000001
 43
0.00000001
 40
0.0
 40
0.0
 40
0.0
 40
0.0
 40
0.5465682385871704
 40
1.0
 40
1.0
 40
1.0
 40
1.0
 10
10.6089156120525
 20
1.457080314960628
 30
0.0
 10
10.610989787604
 20
1.457080314960629
 30
0.0
 10
10.61478469445195
 20
1.457080314960631
 30
0.0
 10
10.61971355653784
 20
1.457080314960632
 30
0.0
 10
10.6219484591552
 20
1.457080314960633
 30
0.0
  0
SPLINE
  5
1B7
330
1F
100
AcDbEntity
  8
0
  6
Continuous
 62
     7
370
    25
100
AcDbSpline
210
0.0
220
0.0
230
1.0
 70
    24
 71
     3
 72
     9
 73
     5
 74
     0
 42
0.00000001
 43
0.00000001
 40
0.0
 40
0.0
 40
0.0
 40
0.0
 40
0.5667921656737825
 40
1.0
 40
1.0
 40
1.0
 40
1.0
 10
10.67984614661727
 20
1.456080314960626
 30
0.0
 10
10.68355604245148
 20
1.456080314960629
 30
0.0
 10
10.69010146784527
 20
1.456080314960634
 30
0.0
 10
10.69605370031432
 20
1.456080314960628
 30
0.0
 10
10.69863225405165
 20
1.456080314960626
 30
0.0
  0
SPLINE
  5
1B8
330
1F
100
AcDbEntity
  8
0
  6
Continuous
 62
     7
370
    25
100
AcDbSpline
210
0.0
220
0.0
230
1.0
 70
    24
 71
     3
 72
     9
 73
     5
 74
     0
 42
0.00000001
 43
0.00000001
 40
0.0
 40
0.0
 40
0.0
 40
0.0
 40
0.5667921656735939
 40
1.0
 40
1.0
 40
1.0
 40
1.0
 10
10.67984614661728
 20
1.457080314960633
 30
0.0
 10
10.68355604245148
 20
1.457080314960632
 30
0.0
 10
10.69010146784528
 20
1.457080314960632
 30
0.0
 10
10.69605370031432
 20
1.457080314960633
 30
0.0
 10
10.69863225405164
 20
1.457080314960634
 30
0.0
  0
SPLINE
  5
1BA
330
1F
100
AcDbEntity
  8
0
  6
Continuous
 62
     7
370
    25
100
AcDbSpline
210
0.0
220
0.0
230
1.0
 70
    24
 71
     3
 72
     9
 73
     5
 74
     0
 42
0.00000001
 43
0.00000001
 40
0.0
 40
0.0
 40
0.0
 40
0.0
 40
0.545599698787609
 40
1.0
 40
1.0
 40
1.0
 40
1.0
 10
10.6219484591552
 20
1.456080314960629
 30
0.0
 10
10.62508745628581
 20
1.456080314960629
 30
0.0
 10
10.63084075332313
 20
1.456080314960631
 30
0.0
 10
10.63696174553946
 20
1.456080314960628
 30
0.0
 10
10.63974312624628
 20
1.456080314960627
 30
0.0
  0
SPLINE
  5
1BB
330
1F
100
AcDbEntity
  8
0
  6
Continuous
 62
     7
370
    25
100
AcDbSpline
210
0.0
220
0.0
230
1.0
 70
    24
 71
     3
 72
     9
 73
     5
 74
     0
 42
0.00000001
 43
0.00000001
 40
0.0
 40
0.0
 40
0.0
 40
0.0
 40
0.5455996987877062
 40
1.0
 40
1.0
 40
1.0
 40
1.0
 10
10.6219484591552
 20
1.457080314960633
 30
0.0
 10
10.62508745628581
 20
1.457080314960633
 30
0.0
 10
10.63084075332314
 20
1.457080314960633
 30
0.0
 10
10.63696174553946
 20
1.457080314960631
 30
0.0
 10
10.63974312624628
 20
1.45708031496063
 30
0.0
  0
SPLINE
  5
1BD
330
1F
100
AcDbEntity
  8
0
  6
Continuous
 62
     7
370
    25
100
AcDbSpline
210
0.0
220
0.0
230
1.0
 70
    24
 71
     3
 72
     9
 73
     5
 74
     0
 42
0.00000001
 43
0.00000001
 40
0.0
 40
0.0
 40
0.0
 40
0.0
 40
0.565425481796267
 40
1.0
 40
1.0
 40
1.0
 40
1.0
 10
10.75174204408634
 20
1.45608031496063
 30
0.0
 10
10.74829753802585
 20
1.45608031496063
 30
0.0
 10
10.74220565470721
 20
1.45608031496063
 30
0.0
 10
10.73295703555049
 20
1.456080314960633
 30
0.0
 10
10.72893782133641
 20
1.456080314960634
 30
0.0
  0
SPLINE
  5
1BE
330
1F
100
AcDbEntity
  8
0
  6
Continuous
 62
     7
370
    25
100
AcDbSpline
210
0.0
220
0.0
230
1.0
 70
    24
 71
     3
 72
     9
 73
     5
 74
     0
 42
0.00000001
 43
0.00000001
 40
0.0
 40
0.0
 40
0.0
 40
0.0
 40
0.5654254817960834
 40
1.0
 40
1.0
 40
1.0
 40
1.0
 10
10.75174204408633
 20
1.457080314960633
 30
0.0
 10
10.74829753802585
 20
1.457080314960631
 30
0.0
 10
10.74220565470722
 20
1.45708031496063
 30
0.0
 10
10.7329570355505
 20
1.457080314960629
 30
0.0
 10
10.72893782133642
 20
1.457080314960628
 30
0.0
  0
SPLINE
  5
1C0
330
1F
100
AcDbEntity
  8
0
  6
Continuous
 62
     7
370
    25
100
AcDbSpline
210
0.0
220
0.0
230
1.0
 70
    24
 71
     3
 72
     9
 73
     5
 74
     0
 42
0.00000001
 43
0.00000001
 40
0.0
 40
0.0
 40
0.0
 40
0.0
 40
0.5579042182885487
 40
1.0
 40
1.0
 40
1.0
 40
1.0
 10
10.59012960415034
 20
1.456080314960631
 30
0.0
 10
10.58523555435431
 20
1.45608031496063
 30
0.0
 10
10.57646335003035
 20
1.456080314960628
 30
0.0
 10
10.5702986184363
 20
1.456080314960629
 30
0.0
 10
10.56757321660318
 20
1.456080314960629
 30
0.0
  0
SPLINE
  5
1C1
330
1F
100
AcDbEntity
  8
0
  6
Continuous
 62
     7
370
    25
100
AcDbSpline
210
0.0
220
0.0
230
1.0
 70
    24
 71
     3
 72
     9
 73
     5
 74
     0
 42
0.00000001
 43
0.00000001
 40
0.0
 40
0.0
 40
0.0
 40
0.0
 40
0.5579042182885946
 40
1.0
 40
1.0
 40
1.0
 40
1.0
 10
10.59012960415034
 20
1.457080314960634
 30
0.0
 10
10.58523555435431
 20
1.457080314960633
 30
0.0
 10
10.57646335003035
 20
1.457080314960631
 30
0.0
 10
10.5702986184363
 20
1.457080314960627
 30
0.0
 10
10.56757321660318
 20
1.457080314960625
 30
0.0
  0
SPLINE
  5
1C4
330
1F
100
AcDbEntity
  8
0
  6
Continuous
 62
     7
370
    25
100
AcDbSpline
210
0.0
220
0.0
230
1.0
 70
    24
 71
     3
 72
     9
 73
     5
 74
     0
 42
0.00000001
 43
0.00000001
 40
0.0
 40
0.0
 40
0.0
 40
0.0
 40
0.5427779767687269
 40
1.0
 40
1.0
 40
1.0
 40
1.0
 10
10.63974312624628
 20
1.45708031496063
 30
0.0
 10
10.64702569099692
 20
1.457080314960629
 30
0.0
 10
10.66044289851517
 20
1.457080314960626
 30
0.0
 10
10.67375812968295
 20
1.457080314960631
 30
0.0
 10
10.67984614661728
 20
1.457080314960633
 30
0.0
  0
SPLINE
  5
1C6
330
1F
100
AcDbEntity
  8
0
  6
Continuous
 62
     7
370
    25
100
AcDbSpline
210
0.0
220
0.0
230
1.0
 70
    24
 71
     3
 72
     9
 73
     5
 74
     0
 42
0.00000001
 43
0.00000001
 40
0.0
 40
0.0
 40
0.0
 40
0.0
 40
0.570390560777048
 40
1.0
 40
1.0
 40
1.0
 40
1.0
 10
10.62119181529516
 20
1.456080314960633
 30
0.0
 10
10.61498850985986
 20
1.456080314960632
 30
0.0
 10
10.6041129697267
 20
1.45608031496063
 30
0.0
 10
10.59433172095154
 20
1.456080314960631
 30
0.0
 10
10.59012960415034
 20
1.456080314960631
 30
0.0
  0
SPLINE
  5
1C7
330
1F
100
AcDbEntity
  8
0
  6
Continuous
 62
     7
370
    25
100
AcDbSpline
210
0.0
220
0.0
230
1.0
 70
    24
 71
     3
 72
     9
 73
     5
 74
     0
 42
0.00000001
 43
0.00000001
 40
0.0
 40
0.0
 40
0.0
 40
0.0
 40
0.5703905607770122
 40
1.0
 40
1.0
 40
1.0
 40
1.0
 10
10.62119181529517
 20
1.457080314960635
 30
0.0
 10
10.61498850985986
 20
1.457080314960634
 30
0.0
 10
10.6041129697267
 20
1.457080314960633
 30
0.0
 10
10.59433172095154
 20
1.457080314960634
 30
0.0
 10
10.59012960415034
 20
1.457080314960634
 30
0.0
  0
SPLINE
  5
1C9
330
1F
100
AcDbEntity
  8
0
  6
Continuous
 62
     7
370
    25
100
AcDbSpline
210
0.0
220
0.0
230
1.0
 70
    24
 71
     3
 72
     9
 73
     5
 74
     0
 42
0.00000001
 43
0.00000001
 40
0.0
 40
0.0
 40
0.0
 40
0.0
 40
0.5460549375359328
 40
1.0
 40
1.0
 40
1.0
 40
1.0
 10
10.72893782133641
 20
1.456080314960634
 30
0.0
 10
10.72328238476977
 20
1.456080314960632
 30
0.0
 10
10.71292548443268
 20
1.456080314960628
 30
0.0
 10
10.70137205066805
 20
1.456080314960629
 30
0.0
 10
10.69612742645609
 20
1.45608031496063
 30
0.0
  0
SPLINE
  5
1CA
330
1F
100
AcDbEntity
  8
0
  6
Continuous
 62
     7
370
    25
100
AcDbSpline
210
0.0
220
0.0
230
1.0
 70
    24
 71
     3
 72
     9
 73
     5
 74
     0
 42
0.00000001
 43
0.00000001
 40
0.0
 40
0.0
 40
0.0
 40
0.0
 40
0.5460549375360652
 40
0.9999999999999999
 40
0.9999999999999999
 40
0.9999999999999999
 40
0.9999999999999999
 10
10.72893782133642
 20
1.457080314960628
 30
0.0
 10
10.72328238476978
 20
1.457080314960629
 30
0.0
 10
10.71292548443268
 20
1.457080314960631
 30
0.0
 10
10.70137205066805
 20
1.457080314960628
 30
0.0
 10
10.69612742645609
 20
1.457080314960626
 30
0.0
  0
SPLINE
  5
1CD
330
1F
100
AcDbEntity
  8
0
  6
Continuous
 62
     7
370
    25
100
AcDbSpline
210
0.0
220
0.0
230
1.0
 70
    24
 71
     3
 72
    10
 73
     6
 74
     0
 42
0.00000001
 43
0.00000001
 40
0.0
 40
0.0
 40
0.0
 40
0.0
 40
0.2927967636218614
 40
0.5952842632326006
 40
1.0
 40
1.0
 40
1.0
 40
1.0
 10
10.69612742645609
 20
1.45608031496063
 30
0.0
 10
10.68885447146692
 20
1.456080314960631
 30
0.0
 10
10.67406784746637
 20
1.456080314960632
 30
0.0
 10
10.6487919176417
 20
1.456080314960634
 30
0.0
 10
10.63123768736481
 20
1.456080314960634
 30
0.0
 10
10.62119181529516
 20
1.456080314960633
 30
0.0
  0
SPLINE
  5
1CE
330
1F
100
AcDbEntity
  8
0
  6
Continuous
 62
     7
370
    25
100
AcDbSpline
210
0.0
220
0.0
230
1.0
 70
    24
 71
     3
 72
    10
 73
     6
 74
     0
 42
0.00000001
 43
0.00000001
 40
0.0
 40
0.0
 40
0.0
 40
0.0
 40
0.292796763621839
 40
0.5952842632326699
 40
0.9999999999999999
 40
0.9999999999999999
 40
0.9999999999999999
 40
0.9999999999999999
 10
10.69612742645609
 20
1.457080314960626
 30
0.0
 10
10.68885447146692
 20
1.457080314960626
 30
0.0
 10
10.67406784746637
 20
1.457080314960627
 30
0.0
 10
10.6487919176417
 20
1.457080314960626
 30
0.0
 10
10.63123768736481
 20
1.457080314960632
 30
0.0
 10
10.62119181529517
 20
1.457080314960635
 30
0.0
  0
LINE
  5
215
330
1F
100
AcDbEntity
  8
0
  6
Continuous
 62
     7
370
    25
100
AcDbLine
 10
-9.169578807
 20
1.9277652781
 30
0.0
 11
-9.1525607193
 21
1.9015556007
 31
0.0
  0
LINE
  5
216
330
1F
100
AcDbEntity
  8
0
  6
Continuous
 62
     7
370
    25
100
AcDbLine
 10
9.1525607193
 20
1.9015556007
 30
0.0
 11
-9.1525607193
 21
1.9015556007
 31
0.0
  0
LINE
  5
217
330
1F
100
AcDbEntity
  8
0
  6
Continuous
 62
     7
370
    25
100
AcDbLine
 10
-8.625
 20
2.0890556007
 30
0.0
 11
8.625
 21
2.0890556007
 31
0.0
  0
LINE
  5
218
330
1F
100
AcDbEntity
  8
0
  6
Continuous
 62
     7
370
    25
100
AcDbLine
 10
9.169578807
 20
1.9277652781
 30
0.0
 11
9.1525607193
 21
1.9015556007
 31
0.0
  0
LINE
  5
219
330
1F
100
AcDbEntity
  8
0
  6
Continuous
 62
     7
370
    25
100
AcDbLine
 10
-9.5690751662
 20
1.4187859156
 30
0.0
 11
-11.75
 21
1.4187859156
 31
0.0
  0
LINE
  5
21A
330
1F
100
AcDbEntity
  8
0
  6
Continuous
 62
     7
370
    25
100
AcDbLine
 10
-11.72
 20
1.4487859156
 30
0.0
 11
-9.5580563223
 21
1.4487859156
 31
0.0
  0
LINE
  5
21B
330
1F
100
AcDbEntity
  8
0
  6
Continuous
 62
     7
370
    25
100
AcDbLine
 10
-11.75
 20
1.375
 30
0.0
 11
-11.75
 21
1.425980315
 31
0.0
  0
LINE
  5
21C
330
1F
100
AcDbEntity
  8
0
  6
Continuous
 62
     7
370
    25
100
AcDbLine
 10
11.75
 20
1.4187859156
 30
0.0
 11
9.5690751662
 21
1.4187859156
 31
0.0
  0
LINE
  5
21D
330
1F
100
AcDbEntity
  8
0
  6
Continuous
 62
     7
370
    25
100
AcDbLine
 10
11.75
 20
1.425980315
 30
0.0
 11
11.75
 21
1.375
 31
0.0
  0
LINE
  5
21E
330
1F
100
AcDbEntity
  8
0
  6
Continuous
 62
     7
370
    25
100
AcDbLine
 10
9.5580563223
 20
1.4487859156
 30
0.0
 11
11.72
 21
1.4487859156
 31
0.0
  0
LINE
  5
21F
330
1F
100
AcDbEntity
  8
0
  6
Continuous
 62
     7
370
    25
100
AcDbLine
 10
-11.72
 20
1.455980315
 30
0.0
 11
-9.5552506404
 21
1.455980315
 31
0.0
  0
LINE
  5
220
330
1F
100
AcDbEntity
  8
0
  6
Continuous
 62
     7
370
    25
100
AcDbLine
 10
9.5552506404
 20
1.455980315
 30
0.0
 11
11.72
 21
1.455980315
 31
0.0
  0
LINE
  5
221
330
1F
100
AcDbEntity
  8
0
  6
Continuous
 62
     7
370
    25
100
AcDbLine
 10
-0.053044056
 20
-0.094375
 30
0.0
 11
0.053044056
 21
-0.094375
 31
0.0
  0
LINE
  5
222
330
1F
100
AcDbEntity
  8
0
  6
Continuous
 62
     7
370
    25
100
AcDbLine
 10
11.1583484861
 20
1.515980315
 30
0.0
 11
9.5292871714
 21
1.515980315
 31
0.0
  0
LINE
  5
223
330
1F
100
AcDbEntity
  8
0
  6
Continuous
 62
     7
370
    25
100
AcDbLine
 10
9.5763742638
 20
1.457080315
 30
0.0
 11
9.5763742638
 21
1.456080315
 31
0.0
  0
LINE
  5
224
330
1F
100
AcDbEntity
  8
0
  6
Continuous
 62
     7
370
    25
100
AcDbLine
 10
9.5763742638
 20
1.457080315
 30
0.0
 11
9.5548160085
 21
1.457080315
 31
0.0
  0
LINE
  5
225
330
1F
100
AcDbEntity
  8
0
  6
Continuous
 62
     7
370
    25
100
AcDbLine
 10
9.5763742638
 20
1.456080315
 30
0.0
 11
9.5552111906
 21
1.456080315
 31
0.0
  0
LINE
  5
226
330
1F
100
AcDbEntity
  8
0
  6
Continuous
 62
     7
370
    25
100
AcDbLine
 10
9.5748739899
 20
1.457080315
 30
0.0
 11
9.5748739899
 21
1.456080315
 31
0.0
  0
LINE
  5
227
330
1F
100
AcDbEntity
  8
0
  6
Continuous
 62
     7
370
    25
100
AcDbLine
 10
9.5628456965
 20
1.457080315
 30
0.0
 11
9.5628456965
 21
1.456080315
 31
0.0
  0
LINE
  5
228
330
1F
100
AcDbEntity
  8
0
  6
Continuous
 62
     7
370
    25
100
AcDbLine
 10
9.7177512682
 20
1.457080315
 30
0.0
 11
9.7177512682
 21
1.456080315
 31
0.0
  0
LINE
  5
229
330
1F
100
AcDbEntity
  8
0
  6
Continuous
 62
     7
370
    25
100
AcDbLine
 10
9.691806846
 20
1.457080315
 30
0.0
 11
9.691806846
 21
1.456080315
 31
0.0
  0
LINE
  5
22A
330
1F
100
AcDbEntity
  8
0
  6
Continuous
 62
     7
370
    25
100
AcDbLine
 10
9.6922728873
 20
1.456080315
 30
0.0
 11
9.6510578592
 21
1.456080315
 31
0.0
  0
LINE
  5
22B
330
1F
100
AcDbEntity
  8
0
  6
Continuous
 62
     7
370
    25
100
AcDbLine
 10
9.6922728873
 20
1.457080315
 30
0.0
 11
9.6510578592
 21
1.457080315
 31
0.0
  0
LINE
  5
22C
330
1F
100
AcDbEntity
  8
0
  6
Continuous
 62
     7
370
    25
100
AcDbLine
 10
9.6922728873
 20
1.457080315
 30
0.0
 11
9.6922728873
 21
1.456080315
 31
0.0
  0
LINE
  5
22D
330
1F
100
AcDbEntity
  8
0
  6
Continuous
 62
     7
370
    25
100
AcDbLine
 10
9.6510578592
 20
1.457080315
 30
0.0
 11
9.6510578592
 21
1.456080315
 31
0.0
  0
LINE
  5
22E
330
1F
100
AcDbEntity
  8
0
  6
Continuous
 62
     7
370
    25
100
AcDbLine
 10
9.8215573562
 20
1.457080315
 30
0.0
 11
9.8215573562
 21
1.456080315
 31
0.0
  0
LINE
  5
22F
330
1F
100
AcDbEntity
  8
0
  6
Continuous
 62
     7
370
    25
100
AcDbLine
 10
10.012744797
 20
1.457080315
 30
0.0
 11
10.012744797
 21
1.456080315
 31
0.0
  0
LINE
  5
230
330
1F
100
AcDbEntity
  8
0
  6
Continuous
 62
     7
370
    25
100
AcDbLine
 10
9.9558647268
 20
1.457080315
 30
0.0
 11
9.9558647268
 21
1.456080315
 31
0.0
  0
LINE
  5
231
330
1F
100
AcDbEntity
  8
0
  6
Continuous
 62
     7
370
    25
100
AcDbLine
 10
9.9460933512
 20
1.457080315
 30
0.0
 11
9.9460933512
 21
1.456080315
 31
0.0
  0
LINE
  5
232
330
1F
100
AcDbEntity
  8
0
  6
Continuous
 62
     7
370
    25
100
AcDbLine
 10
9.9052597146
 20
1.457080315
 30
0.0
 11
9.9052597146
 21
1.456080315
 31
0.0
  0
LINE
  5
233
330
1F
100
AcDbEntity
  8
0
  6
Continuous
 62
     7
370
    25
100
AcDbLine
 10
9.7942522869
 20
1.457080315
 30
0.0
 11
9.7942522869
 21
1.456080315
 31
0.0
  0
LINE
  5
234
330
1F
100
AcDbEntity
  8
0
  6
Continuous
 62
     7
370
    25
100
AcDbLine
 10
9.7759619494
 20
1.457080315
 30
0.0
 11
9.7759619494
 21
1.456080315
 31
0.0
  0
LINE
  5
235
330
1F
100
AcDbEntity
  8
0
  6
Continuous
 62
     7
370
    25
100
AcDbLine
 10
9.845366058
 20
1.457080315
 30
0.0
 11
9.845366058
 21
1.456080315
 31
0.0
  0
LINE
  5
236
330
1F
100
AcDbEntity
  8
0
  6
Continuous
 62
     7
370
    25
100
AcDbLine
 10
9.9004849555
 20
1.457080315
 30
0.0
 11
9.9004849555
 21
1.456080315
 31
0.0
  0
LINE
  5
237
330
1F
100
AcDbEntity
  8
0
  6
Continuous
 62
     7
370
    25
100
AcDbLine
 10
9.9879315166
 20
1.457080315
 30
0.0
 11
9.9879315166
 21
1.456080315
 31
0.0
  0
LINE
  5
238
330
1F
100
AcDbEntity
  8
0
  6
Continuous
 62
     7
370
    25
100
AcDbLine
 10
9.8295805481
 20
1.457080315
 30
0.0
 11
9.8295805481
 21
1.456080315
 31
0.0
  0
LINE
  5
239
330
1F
100
AcDbEntity
  8
0
  6
Continuous
 62
     7
370
    25
100
AcDbLine
 10
9.9250503509
 20
1.457080315
 30
0.0
 11
9.9250503509
 21
1.456080315
 31
0.0
  0
LINE
  5
23A
330
1F
100
AcDbEntity
  8
0
  6
Continuous
 62
     7
370
    25
100
AcDbLine
 10
9.8185568084
 20
1.457080315
 30
0.0
 11
9.8185568084
 21
1.456080315
 31
0.0
  0
LINE
  5
23B
330
1F
100
AcDbEntity
  8
0
  6
Continuous
 62
     7
370
    25
100
AcDbLine
 10
9.9861964213
 20
1.457080315
 30
0.0
 11
9.9861964213
 21
1.456080315
 31
0.0
  0
LINE
  5
23C
330
1F
100
AcDbEntity
  8
0
  6
Continuous
 62
     7
370
    25
100
AcDbLine
 10
9.9390746881
 20
1.457080315
 30
0.0
 11
9.9390746881
 21
1.456080315
 31
0.0
  0
LINE
  5
23D
330
1F
100
AcDbEntity
  8
0
  6
Continuous
 62
     7
370
    25
100
AcDbLine
 10
9.9435885734
 20
1.457080315
 30
0.0
 11
9.9435885734
 21
1.456080315
 31
0.0
  0
LINE
  5
23E
330
1F
100
AcDbEntity
  8
0
  6
Continuous
 62
     7
370
    25
100
AcDbLine
 10
9.776718643
 20
1.457080315
 30
0.0
 11
9.776718643
 21
1.456080315
 31
0.0
  0
LINE
  5
23F
330
1F
100
AcDbEntity
  8
0
  6
Continuous
 62
     7
370
    25
100
AcDbLine
 10
9.8403564526
 20
1.457080315
 30
0.0
 11
9.8403564526
 21
1.456080315
 31
0.0
  0
LINE
  5
240
330
1F
100
AcDbEntity
  8
0
  6
Continuous
 62
     7
370
    25
100
AcDbLine
 10
9.8664091081
 20
1.457080315
 30
0.0
 11
9.8664091081
 21
1.456080315
 31
0.0
  0
LINE
  5
241
330
1F
100
AcDbEntity
  8
0
  6
Continuous
 62
     7
370
    25
100
AcDbLine
 10
9.8952274651
 20
1.457080315
 30
0.0
 11
9.8952274651
 21
1.456080315
 31
0.0
  0
LINE
  5
242
330
1F
100
AcDbEntity
  8
0
  6
Continuous
 62
     7
370
    25
100
AcDbLine
 10
9.7965092295
 20
1.457080315
 30
0.0
 11
9.7965092295
 21
1.456080315
 31
0.0
  0
LINE
  5
243
330
1F
100
AcDbEntity
  8
0
  6
Continuous
 62
     7
370
    25
100
AcDbLine
 10
9.8245709427
 20
1.457080315
 30
0.0
 11
9.8245709427
 21
1.456080315
 31
0.0
  0
LINE
  5
244
330
1F
100
AcDbEntity
  8
0
  6
Continuous
 62
     7
370
    25
100
AcDbLine
 10
9.8568856174
 20
1.457080315
 30
0.0
 11
9.8568856174
 21
1.456080315
 31
0.0
  0
LINE
  5
245
330
1F
100
AcDbEntity
  8
0
  6
Continuous
 62
     7
370
    25
100
AcDbLine
 10
9.8902178099
 20
1.457080315
 30
0.0
 11
9.8902178099
 21
1.456080315
 31
0.0
  0
LINE
  5
246
330
1F
100
AcDbEntity
  8
0
  6
Continuous
 62
     7
370
    25
100
AcDbLine
 10
9.9180316381
 20
1.457080315
 30
0.0
 11
9.9180316381
 21
1.456080315
 31
0.0
  0
LINE
  5
247
330
1F
100
AcDbEntity
  8
0
  6
Continuous
 62
     7
370
    25
100
AcDbLine
 10
9.9370786692
 20
1.457080315
 30
0.0
 11
9.9370786692
 21
1.456080315
 31
0.0
  0
LINE
  5
248
330
1F
100
AcDbEntity
  8
0
  6
Continuous
 62
     7
370
    25
100
AcDbLine
 10
9.7792103821
 20
1.456080315
 30
0.0
 11
9.8218182799
 21
1.456080315
 31
0.0
  0
LINE
  5
249
330
1F
100
AcDbEntity
  8
0
  6
Continuous
 62
     7
370
    25
100
AcDbLine
 10
9.7792103821
 20
1.457080315
 30
0.0
 11
9.8218182799
 21
1.457080315
 31
0.0
  0
LINE
  5
24A
330
1F
100
AcDbEntity
  8
0
  6
Continuous
 62
     7
370
    25
100
AcDbLine
 10
9.7792103821
 20
1.457080315
 30
0.0
 11
9.7792103821
 21
1.456080315
 31
0.0
  0
LINE
  5
24B
330
1F
100
AcDbEntity
  8
0
  6
Continuous
 62
     7
370
    25
100
AcDbLine
 10
9.8218182799
 20
1.457080315
 30
0.0
 11
9.8218182799
 21
1.456080315
 31
0.0
  0
LINE
  5
24C
330
1F
100
AcDbEntity
  8
0
  6
Continuous
 62
     7
370
    25
100
AcDbLine
 10
9.9388268031
 20
1.457080315
 30
0.0
 11
9.9388268031
 21
1.456080315
 31
0.0
  0
LINE
  5
24D
330
1F
100
AcDbEntity
  8
0
  6
Continuous
 62
     7
370
    25
100
AcDbLine
 10
9.8413609814
 20
1.457080315
 30
0.0
 11
9.8413609814
 21
1.456080315
 31
0.0
  0
LINE
  5
24E
330
1F
100
AcDbEntity
  8
0
  6
Continuous
 62
     7
370
    25
100
AcDbLine
 10
9.7892426815
 20
1.457080315
 30
0.0
 11
9.7892426815
 21
1.456080315
 31
0.0
  0
LINE
  5
24F
330
1F
100
AcDbEntity
  8
0
  6
Continuous
 62
     7
370
    25
100
AcDbLine
 10
9.9067600134
 20
1.457080315
 30
0.0
 11
9.9067600134
 21
1.456080315
 31
0.0
  0
LINE
  5
250
330
1F
100
AcDbEntity
  8
0
  6
Continuous
 62
     7
370
    25
100
AcDbLine
 10
9.9252982359
 20
1.457080315
 30
0.0
 11
9.9252982359
 21
1.456080315
 31
0.0
  0
LINE
  5
251
330
1F
100
AcDbEntity
  8
0
  6
Continuous
 62
     7
370
    25
100
AcDbLine
 10
9.9776644208
 20
1.457080315
 30
0.0
 11
9.9776644208
 21
1.456080315
 31
0.0
  0
LINE
  5
252
330
1F
100
AcDbEntity
  8
0
  6
Continuous
 62
     7
370
    25
100
AcDbLine
 10
9.8132992683
 20
1.457080315
 30
0.0
 11
9.8132992683
 21
1.456080315
 31
0.0
  0
LINE
  5
253
330
1F
100
AcDbEntity
  8
0
  6
Continuous
 62
     7
370
    25
100
AcDbLine
 10
9.9551211217
 20
1.457080315
 30
0.0
 11
9.9551211217
 21
1.456080315
 31
0.0
  0
LINE
  5
254
330
1F
100
AcDbEntity
  8
0
  6
Continuous
 62
     7
370
    25
100
AcDbLine
 10
9.9237848984
 20
1.457080315
 30
0.0
 11
9.9237848984
 21
1.456080315
 31
0.0
  0
LINE
  5
255
330
1F
100
AcDbEntity
  8
0
  6
Continuous
 62
     7
370
    25
100
AcDbLine
 10
9.8476230006
 20
1.457080315
 30
0.0
 11
9.8476230006
 21
1.456080315
 31
0.0
  0
LINE
  5
256
330
1F
100
AcDbEntity
  8
0
  6
Continuous
 62
     7
370
    25
100
AcDbLine
 10
10.0748275651
 20
1.457080315
 30
0.0
 11
10.0748275651
 21
1.456080315
 31
0.0
  0
LINE
  5
257
330
1F
100
AcDbEntity
  8
0
  6
Continuous
 62
     7
370
    25
100
AcDbLine
 10
10.0748275651
 20
1.457080315
 30
0.0
 11
10.1174223743
 21
1.457080315
 31
0.0
  0
LINE
  5
258
330
1F
100
AcDbEntity
  8
0
  6
Continuous
 62
     7
370
    25
100
AcDbLine
 10
10.1174223743
 20
1.457080315
 30
0.0
 11
10.1174223743
 21
1.456080315
 31
0.0
  0
LINE
  5
259
330
1F
100
AcDbEntity
  8
0
  6
Continuous
 62
     7
370
    25
100
AcDbLine
 10
10.0748275651
 20
1.456080315
 30
0.0
 11
10.1174223743
 21
1.456080315
 31
0.0
  0
LINE
  5
25A
330
1F
100
AcDbEntity
  8
0
  6
Continuous
 62
     7
370
    25
100
AcDbLine
 10
10.1224319797
 20
1.457080315
 30
0.0
 11
10.1224319797
 21
1.456080315
 31
0.0
  0
LINE
  5
25B
330
1F
100
AcDbEntity
  8
0
  6
Continuous
 62
     7
370
    25
100
AcDbLine
 10
10.1384784631
 20
1.457080315
 30
0.0
 11
10.1384784631
 21
1.456080315
 31
0.0
  0
LINE
  5
25C
330
1F
100
AcDbEntity
  8
0
  6
Continuous
 62
     7
370
    25
100
AcDbLine
 10
10.1159221253
 20
1.457080315
 30
0.0
 11
10.1159221253
 21
1.456080315
 31
0.0
  0
LINE
  5
25D
330
1F
100
AcDbEntity
  8
0
  6
Continuous
 62
     7
370
    25
100
AcDbLine
 10
10.1149175965
 20
1.457080315
 30
0.0
 11
10.1149175965
 21
1.456080315
 31
0.0
  0
LINE
  5
25E
330
1F
100
AcDbEntity
  8
0
  6
Continuous
 62
     7
370
    25
100
AcDbLine
 10
10.1675316166
 20
1.457080315
 30
0.0
 11
10.1675316166
 21
1.456080315
 31
0.0
  0
LINE
  5
25F
330
1F
100
AcDbEntity
  8
0
  6
Continuous
 62
     7
370
    25
100
AcDbLine
 10
10.2111309546
 20
1.457080315
 30
0.0
 11
10.2111309546
 21
1.456080315
 31
0.0
  0
LINE
  5
260
330
1F
100
AcDbEntity
  8
0
  6
Continuous
 62
     7
370
    25
100
AcDbLine
 10
10.1540030493
 20
1.457080315
 30
0.0
 11
10.1540030493
 21
1.456080315
 31
0.0
  0
LINE
  5
261
330
1F
100
AcDbEntity
  8
0
  6
Continuous
 62
     7
370
    25
100
AcDbLine
 10
10.48168956
 20
1.457080315
 30
0.0
 11
10.4390947508
 21
1.457080315
 31
0.0
  0
LINE
  5
262
330
1F
100
AcDbEntity
  8
0
  6
Continuous
 62
     7
370
    25
100
AcDbLine
 10
10.48168956
 20
1.456080315
 30
0.0
 11
10.4390947508
 21
1.456080315
 31
0.0
  0
LINE
  5
263
330
1F
100
AcDbEntity
  8
0
  6
Continuous
 62
     7
370
    25
100
AcDbLine
 10
10.4415995784
 20
1.457080315
 30
0.0
 11
10.4415995784
 21
1.456080315
 31
0.0
  0
LINE
  5
264
330
1F
100
AcDbEntity
  8
0
  6
Continuous
 62
     7
370
    25
100
AcDbLine
 10
10.48168956
 20
1.457080315
 30
0.0
 11
10.48168956
 21
1.456080315
 31
0.0
  0
LINE
  5
265
330
1F
100
AcDbEntity
  8
0
  6
Continuous
 62
     7
370
    25
100
AcDbLine
 10
10.3138150511
 20
1.457080315
 30
0.0
 11
10.3138150511
 21
1.456080315
 31
0.0
  0
LINE
  5
266
330
1F
100
AcDbEntity
  8
0
  6
Continuous
 62
     7
370
    25
100
AcDbLine
 10
10.4060103437
 20
1.457080315
 30
0.0
 11
10.4060103437
 21
1.456080315
 31
0.0
  0
LINE
  5
267
330
1F
100
AcDbEntity
  8
0
  6
Continuous
 62
     7
370
    25
100
AcDbLine
 10
10.2862491079
 20
1.457080315
 30
0.0
 11
10.2862491079
 21
1.456080315
 31
0.0
  0
LINE
  5
268
330
1F
100
AcDbEntity
  8
0
  6
Continuous
 62
     7
370
    25
100
AcDbLine
 10
10.3962389681
 20
1.457080315
 30
0.0
 11
10.3962389681
 21
1.456080315
 31
0.0
  0
LINE
  5
269
330
1F
100
AcDbEntity
  8
0
  6
Continuous
 62
     7
370
    25
100
AcDbLine
 10
10.4405949998
 20
1.457080315
 30
0.0
 11
10.4405949998
 21
1.456080315
 31
0.0
  0
LINE
  5
26A
330
1F
100
AcDbEntity
  8
0
  6
Continuous
 62
     7
370
    25
100
AcDbLine
 10
10.3238343615
 20
1.457080315
 30
0.0
 11
10.3238343615
 21
1.456080315
 31
0.0
  0
LINE
  5
26B
330
1F
100
AcDbEntity
  8
0
  6
Continuous
 62
     7
370
    25
100
AcDbLine
 10
10.2714681766
 20
1.457080315
 30
0.0
 11
10.2714681766
 21
1.456080315
 31
0.0
  0
LINE
  5
26C
330
1F
100
AcDbEntity
  8
0
  6
Continuous
 62
     7
370
    25
100
AcDbLine
 10
10.4200608081
 20
1.457080315
 30
0.0
 11
10.4200608081
 21
1.456080315
 31
0.0
  0
LINE
  5
26D
330
1F
100
AcDbEntity
  8
0
  6
Continuous
 62
     7
370
    25
100
AcDbLine
 10
10.4343198921
 20
1.457080315
 30
0.0
 11
10.4343198921
 21
1.456080315
 31
0.0
  0
LINE
  5
26E
330
1F
100
AcDbEntity
  8
0
  6
Continuous
 62
     7
370
    25
100
AcDbLine
 10
10.3097969358
 20
1.457080315
 30
0.0
 11
10.3097969358
 21
1.456080315
 31
0.0
  0
LINE
  5
26F
330
1F
100
AcDbEntity
  8
0
  6
Continuous
 62
     7
370
    25
100
AcDbLine
 10
10.2672021265
 20
1.457080315
 30
0.0
 11
10.2672021265
 21
1.456080315
 31
0.0
  0
LINE
  5
270
330
1F
100
AcDbEntity
  8
0
  6
Continuous
 62
     7
370
    25
100
AcDbLine
 10
10.4390947508
 20
1.457080315
 30
0.0
 11
10.4390947508
 21
1.456080315
 31
0.0
  0
LINE
  5
271
330
1F
100
AcDbEntity
  8
0
  6
Continuous
 62
     7
370
    25
100
AcDbLine
 10
10.3097969358
 20
1.457080315
 30
0.0
 11
10.2672021265
 21
1.457080315
 31
0.0
  0
LINE
  5
272
330
1F
100
AcDbEntity
  8
0
  6
Continuous
 62
     7
370
    25
100
AcDbLine
 10
10.3097969358
 20
1.456080315
 30
0.0
 11
10.2672021265
 21
1.456080315
 31
0.0
  0
LINE
  5
273
330
1F
100
AcDbEntity
  8
0
  6
Continuous
 62
     7
370
    25
100
AcDbLine
 10
10.7023763572
 20
1.457080315
 30
0.0
 11
10.7023763572
 21
1.456080315
 31
0.0
  0
LINE
  5
274
330
1F
100
AcDbEntity
  8
0
  6
Continuous
 62
     7
370
    25
100
AcDbLine
 10
10.6219484592
 20
1.457080315
 30
0.0
 11
10.6219484592
 21
1.456080315
 31
0.0
  0
LINE
  5
275
330
1F
100
AcDbEntity
  8
0
  6
Continuous
 62
     7
370
    25
100
AcDbLine
 10
10.7379655918
 20
1.457080315
 30
0.0
 11
10.7379655918
 21
1.456080315
 31
0.0
  0
LINE
  5
276
330
1F
100
AcDbEntity
  8
0
  6
Continuous
 62
     7
370
    25
100
AcDbLine
 10
10.5873769414
 20
1.457080315
 30
0.0
 11
10.5873769414
 21
1.456080315
 31
0.0
  0
LINE
  5
277
330
1F
100
AcDbEntity
  8
0
  6
Continuous
 62
     7
370
    25
100
AcDbLine
 10
10.6865908473
 20
1.457080315
 30
0.0
 11
10.6865908473
 21
1.456080315
 31
0.0
  0
LINE
  5
278
330
1F
100
AcDbEntity
  8
0
  6
Continuous
 62
     7
370
    25
100
AcDbLine
 10
10.6402387967
 20
1.457080315
 30
0.0
 11
10.6402387967
 21
1.456080315
 31
0.0
  0
LINE
  5
279
330
1F
100
AcDbEntity
  8
0
  6
Continuous
 62
     7
370
    25
100
AcDbLine
 10
10.7635224774
 20
1.457080315
 30
0.0
 11
10.7635224774
 21
1.456080315
 31
0.0
  0
LINE
  5
27A
330
1F
100
AcDbEntity
  8
0
  6
Continuous
 62
     7
370
    25
100
AcDbLine
 10
10.7069032812
 20
1.457080315
 30
0.0
 11
10.7069032812
 21
1.456080315
 31
0.0
  0
LINE
  5
27B
330
1F
100
AcDbEntity
  8
0
  6
Continuous
 62
     7
370
    25
100
AcDbLine
 10
10.5633203048
 20
1.457080315
 30
0.0
 11
10.5633203048
 21
1.456080315
 31
0.0
  0
LINE
  5
27C
330
1F
100
AcDbEntity
  8
0
  6
Continuous
 62
     7
370
    25
100
AcDbLine
 10
10.6181913173
 20
1.457080315
 30
0.0
 11
10.6181913173
 21
1.456080315
 31
0.0
  0
LINE
  5
27D
330
1F
100
AcDbEntity
  8
0
  6
Continuous
 62
     7
370
    25
100
AcDbLine
 10
10.7221800819
 20
1.457080315
 30
0.0
 11
10.7221800819
 21
1.456080315
 31
0.0
  0
LINE
  5
27E
330
1F
100
AcDbEntity
  8
0
  6
Continuous
 62
     7
370
    25
100
AcDbLine
 10
10.6024058074
 20
1.457080315
 30
0.0
 11
10.6024058074
 21
1.456080315
 31
0.0
  0
LINE
  5
27F
330
1F
100
AcDbEntity
  8
0
  6
Continuous
 62
     7
370
    25
100
AcDbLine
 10
10.5958959032
 20
1.457080315
 30
0.0
 11
10.5958959032
 21
1.456080315
 31
0.0
  0
LINE
  5
280
330
1F
100
AcDbEntity
  8
0
  6
Continuous
 62
     7
370
    25
100
AcDbLine
 10
10.5532879557
 20
1.457080315
 30
0.0
 11
10.5532879557
 21
1.456080315
 31
0.0
  0
LINE
  5
281
330
1F
100
AcDbEntity
  8
0
  6
Continuous
 62
     7
370
    25
100
AcDbLine
 10
10.5958959032
 20
1.456080315
 30
0.0
 11
10.5532879557
 21
1.456080315
 31
0.0
  0
LINE
  5
282
330
1F
100
AcDbEntity
  8
0
  6
Continuous
 62
     7
370
    25
100
AcDbLine
 10
10.5958959032
 20
1.457080315
 30
0.0
 11
10.5532879557
 21
1.457080315
 31
0.0
  0
LINE
  5
283
330
1F
100
AcDbEntity
  8
0
  6
Continuous
 62
     7
370
    25
100
AcDbLine
 10
10.7156701778
 20
1.457080315
 30
0.0
 11
10.7156701778
 21
1.456080315
 31
0.0
  0
LINE
  5
284
330
1F
100
AcDbEntity
  8
0
  6
Continuous
 62
     7
370
    25
100
AcDbLine
 10
10.766027305
 20
1.457080315
 30
0.0
 11
10.766027305
 21
1.456080315
 31
0.0
  0
LINE
  5
285
330
1F
100
AcDbEntity
  8
0
  6
Continuous
 62
     7
370
    25
100
AcDbLine
 10
10.6843339544
 20
1.457080315
 30
0.0
 11
10.6843339544
 21
1.456080315
 31
0.0
  0
LINE
  5
286
330
1F
100
AcDbEntity
  8
0
  6
Continuous
 62
     7
370
    25
100
AcDbLine
 10
10.6435002681
 20
1.457080315
 30
0.0
 11
10.6435002681
 21
1.456080315
 31
0.0
  0
LINE
  5
287
330
1F
100
AcDbEntity
  8
0
  6
Continuous
 62
     7
370
    25
100
AcDbLine
 10
10.7469802241
 20
1.457080315
 30
0.0
 11
10.7469802241
 21
1.456080315
 31
0.0
  0
LINE
  5
288
330
1F
100
AcDbEntity
  8
0
  6
Continuous
 62
     7
370
    25
100
AcDbLine
 10
10.6026666813
 20
1.457080315
 30
0.0
 11
10.6026666813
 21
1.456080315
 31
0.0
  0
LINE
  5
289
330
1F
100
AcDbEntity
  8
0
  6
Continuous
 62
     7
370
    25
100
AcDbLine
 10
10.7199230895
 20
1.457080315
 30
0.0
 11
10.7199230895
 21
1.456080315
 31
0.0
  0
LINE
  5
28A
330
1F
100
AcDbEntity
  8
0
  6
Continuous
 62
     7
370
    25
100
AcDbLine
 10
10.6885999049
 20
1.457080315
 30
0.0
 11
10.6885999049
 21
1.456080315
 31
0.0
  0
LINE
  5
28B
330
1F
100
AcDbEntity
  8
0
  6
Continuous
 62
     7
370
    25
100
AcDbLine
 10
10.571330458
 20
1.457080315
 30
0.0
 11
10.571330458
 21
1.456080315
 31
0.0
  0
LINE
  5
28C
330
1F
100
AcDbEntity
  8
0
  6
Continuous
 62
     7
370
    25
100
AcDbLine
 10
10.6585421729
 20
1.457080315
 30
0.0
 11
10.6585421729
 21
1.456080315
 31
0.0
  0
LINE
  5
28D
330
1F
100
AcDbEntity
  8
0
  6
Continuous
 62
     7
370
    25
100
AcDbLine
 10
10.6314850383
 20
1.457080315
 30
0.0
 11
10.6314850383
 21
1.456080315
 31
0.0
  0
LINE
  5
28E
330
1F
100
AcDbEntity
  8
0
  6
Continuous
 62
     7
370
    25
100
AcDbLine
 10
10.6116814131
 20
1.457080315
 30
0.0
 11
10.6116814131
 21
1.456080315
 31
0.0
  0
LINE
  5
28F
330
1F
100
AcDbEntity
  8
0
  6
Continuous
 62
     7
370
    25
100
AcDbLine
 10
10.7617742937
 20
1.457080315
 30
0.0
 11
10.7617742937
 21
1.456080315
 31
0.0
  0
LINE
  5
290
330
1F
100
AcDbEntity
  8
0
  6
Continuous
 62
     7
370
    25
100
AcDbLine
 10
10.7191664457
 20
1.456080315
 30
0.0
 11
10.7617742937
 21
1.456080315
 31
0.0
  0
LINE
  5
291
330
1F
100
AcDbEntity
  8
0
  6
Continuous
 62
     7
370
    25
100
AcDbLine
 10
10.7191664457
 20
1.457080315
 30
0.0
 11
10.7617742937
 21
1.457080315
 31
0.0
  0
LINE
  5
292
330
1F
100
AcDbEntity
  8
0
  6
Continuous
 62
     7
370
    25
100
AcDbLine
 10
10.7191664457
 20
1.457080315
 30
0.0
 11
10.7191664457
 21
1.456080315
 31
0.0
  0
LINE
  5
293
330
1F
100
AcDbEntity
  8
0
  6
Continuous
 62
     7
370
    25
100
AcDbLine
 10
10.7126565415
 20
1.457080315
 30
0.0
 11
10.7126565415
 21
1.456080315
 31
0.0
  0
LINE
  5
294
330
1F
100
AcDbEntity
  8
0
  6
Continuous
 62
     7
370
    25
100
AcDbLine
 10
10.6089156121
 20
1.457080315
 30
0.0
 11
10.6089156121
 21
1.456080315
 31
0.0
  0
LINE
  5
295
330
1F
100
AcDbEntity
  8
0
  6
Continuous
 62
     7
370
    25
100
AcDbLine
 10
10.6986322541
 20
1.457080315
 30
0.0
 11
10.6986322541
 21
1.456080315
 31
0.0
  0
LINE
  5
296
330
1F
100
AcDbEntity
  8
0
  6
Continuous
 62
     7
370
    25
100
AcDbLine
 10
10.7517420441
 20
1.457080315
 30
0.0
 11
10.7517420441
 21
1.456080315
 31
0.0
  0
LINE
  5
297
330
1F
100
AcDbEntity
  8
0
  6
Continuous
 62
     7
370
    25
100
AcDbLine
 10
10.5675732166
 20
1.457080315
 30
0.0
 11
10.5675732166
 21
1.456080315
 31
0.0
  0
LINE
  5
298
330
1F
100
AcDbEntity
  8
0
  6
Continuous
 62
     7
370
    25
100
AcDbLine
 10
10.6397431262
 20
1.457080315
 30
0.0
 11
10.6397431262
 21
1.456080315
 31
0.0
  0
LINE
  5
299
330
1F
100
AcDbEntity
  8
0
  6
Continuous
 62
     7
370
    25
100
AcDbLine
 10
10.6798461466
 20
1.457080315
 30
0.0
 11
10.6798461466
 21
1.456080315
 31
0.0
  0
LINE
  5
29A
330
1F
100
AcDbEntity
  8
0
  6
Continuous
 62
     7
370
    25
100
AcDbLine
 10
10.5901296042
 20
1.457080315
 30
0.0
 11
10.5901296042
 21
1.456080315
 31
0.0
  0
LINE
  5
29B
330
1F
100
AcDbEntity
  8
0
  6
Continuous
 62
     7
370
    25
100
AcDbLine
 10
10.7289378213
 20
1.457080315
 30
0.0
 11
10.7289378213
 21
1.456080315
 31
0.0
  0
LINE
  5
29C
330
1F
100
AcDbEntity
  8
0
  6
Continuous
 62
     7
370
    25
100
AcDbLine
 10
10.6961274265
 20
1.457080315
 30
0.0
 11
10.6961274265
 21
1.456080315
 31
0.0
  0
LINE
  5
29D
330
1F
100
AcDbEntity
  8
0
  6
Continuous
 62
     7
370
    25
100
AcDbLine
 10
10.6211918153
 20
1.457080315
 30
0.0
 11
10.6211918153
 21
1.456080315
 31
0.0
  0
LINE
  5
29E
330
1F
100
AcDbEntity
  8
0
  6
Continuous
 62
     7
370
    25
100
AcDbLine
 10
10.8749278847
 20
1.457080315
 30
0.0
 11
10.8749278847
 21
1.456080315
 31
0.0
  0
LINE
  5
29F
330
1F
100
AcDbEntity
  8
0
  6
Continuous
 62
     7
370
    25
100
AcDbLine
 10
10.7622375166
 20
1.457080315
 30
0.0
 11
10.9125
 21
1.457080315
 31
0.0
  0
LINE
  5
2A0
330
1F
100
AcDbEntity
  8
0
  6
Continuous
 62
     7
370
    25
100
AcDbLine
 10
10.9125
 20
1.457080315
 30
0.0
 11
10.9125
 21
1.456080315
 31
0.0
  0
LINE
  5
2A1
330
1F
100
AcDbEntity
  8
0
  6
Continuous
 62
     7
370
    25
100
AcDbLine
 10
10.7622375166
 20
1.456080315
 30
0.0
 11
10.9125
 21
1.456080315
 31
0.0
  0
LINE
  5
2A2
330
1F
100
AcDbEntity
  8
0
  6
Continuous
 62
     7
370
    25
100
AcDbLine
 10
10.7622375166
 20
1.457080315
 30
0.0
 11
10.7622375166
 21
1.456080315
 31
0.0
  0
LINE
  5
2A3
330
1F
100
AcDbEntity
  8
0
  6
Continuous
 62
     7
370
    25
100
AcDbLine
 10
-4.0535839048
 20
-1.2963629921
 30
0.0
 11
-4.4464160952
 21
-1.2963629921
 31
0.0
  0
LINE
  5
2A4
330
1F
100
AcDbEntity
  8
0
  6
Continuous
 62
     7
370
    25
100
AcDbLine
 10
11.625
 20
-1.4497
 30
0.0
 11
-11.625
 21
-1.4497
 31
0.0
  0
LINE
  5
2A5
330
1F
100
AcDbEntity
  8
0
  6
Continuous
 62
     7
370
    25
100
AcDbLine
 10
10.75
 20
1.4487859156
 30
0.0
 11
10.75
 21
-1.4497
 31
0.0
  0
LINE
  5
2A6
330
1F
100
AcDbEntity
  8
0
  6
Continuous
 62
     7
370
    25
100
AcDbLine
 10
11.625
 20
-1.375
 30
0.0
 11
11.625
 21
-1.4497
 31
0.0
  0
LINE
  5
2A7
330
1F
100
AcDbEntity
  8
0
  6
Continuous
 62
     7
370
    25
100
AcDbLine
 10
-11.625
 20
-1.375
 30
0.0
 11
-11.625
 21
-1.4497
 31
0.0
  0
LINE
  5
2A8
330
1F
100
AcDbEntity
  8
0
  6
Continuous
 62
     7
370
    25
100
AcDbLine
 10
-10.75
 20
-1.4497
 30
0.0
 11
-10.75
 21
1.4487859156
 31
0.0
  0
LINE
  5
2A9
330
1F
100
AcDbEntity
  8
0
  6
Continuous
 62
     7
370
    25
100
AcDbLine
 10
-0.0584567148
 20
0.09125
 30
0.0
 11
0.0584567148
 21
0.09125
 31
0.0
  0
LINE
  5
2AA
330
1F
100
AcDbEntity
  8
0
  6
Continuous
 62
     7
370
    25
100
AcDbLine
 10
-0.1875
 20
0.0167468245
 30
0.0
 11
-0.1875
 21
-0.0167468245
 31
0.0
  0
LINE
  5
2AB
330
1F
100
AcDbEntity
  8
0
  6
Continuous
 62
     7
370
    25
100
AcDbLine
 10
0.1875
 20
-0.0167468245
 30
0.0
 11
0.1875
 21
0.0167468245
 31
0.0
  0
LINE
  5
2AC
330
1F
100
AcDbEntity
  8
0
  6
Continuous
 62
     7
370
    25
100
AcDbLine
 10
0.163462295
 20
0.030625
 30
0.0
 11
-0.163462295
 21
0.030625
 31
0.0
  0
LINE
  5
2AD
330
1F
100
AcDbEntity
  8
0
  6
Continuous
 62
     7
370
    25
100
AcDbLine
 10
0.0595392465
 20
0.090625
 30
0.0
 11
-0.0595392465
 21
0.090625
 31
0.0
  0
LINE
  5
2AE
330
1F
100
AcDbEntity
  8
0
  6
Continuous
 62
     7
370
    25
100
AcDbLine
 10
-4.0625
 20
-0.659375
 30
0.0
 11
-5.1875
 21
-0.659375
 31
0.0
  0
LINE
  5
2AF
330
1F
100
AcDbEntity
  8
0
  6
Continuous
 62
     7
370
    25
100
AcDbLine
 10
-4.8508080582
 20
-0.346875
 30
0.0
 11
-4.8508080582
 21
-0.3125
 31
0.0
  0
LINE
  5
2B0
330
1F
100
AcDbEntity
  8
0
  6
Continuous
 62
     7
370
    25
100
AcDbLine
 10
-4.0625
 20
-0.75
 30
0.0
 11
-4.4542468245
 21
-0.75
 31
0.0
  0
LINE
  5
2B1
330
1F
100
AcDbEntity
  8
0
  6
Continuous
 62
     7
370
    25
100
AcDbLine
 10
-4.8218421945
 20
-0.75
 30
0.0
 11
-5.1767766953
 21
-0.75
 31
0.0
  0
LINE
  5
2B2
330
1F
100
AcDbEntity
  8
0
  6
Continuous
 62
     7
370
    25
100
AcDbLine
 10
-4.4375
 20
-1.125
 30
0.0
 11
-4.0625
 21
-1.125
 31
0.0
  0
LINE
  5
2B3
330
1F
100
AcDbEntity
  8
0
  6
Continuous
 62
     7
370
    25
100
AcDbLine
 10
0.0
 20
-0.125
 30
0.0
 11
0.0
 21
-1.375
 31
0.0
  0
LINE
  5
2B4
330
1F
100
AcDbEntity
  8
0
  6
Continuous
 62
     7
370
    25
100
AcDbLine
 10
-3.9375
 20
-1.375
 30
0.0
 11
12.0
 21
-1.375
 31
0.0
  0
LINE
  5
2B5
330
1F
100
AcDbEntity
  8
0
  6
Continuous
 62
     7
370
    25
100
AcDbLine
 10
-4.0625
 20
-0.5
 30
0.0
 11
-4.0625
 21
-1.25
 31
0.0
  0
LINE
  5
2B6
330
1F
100
AcDbEntity
  8
0
  6
Continuous
 62
     7
370
    25
100
AcDbLine
 10
-4.25
 20
-0.3125
 30
0.0
 11
-5.0
 21
-0.3125
 31
0.0
  0
LINE
  5
2B7
330
1F
100
AcDbEntity
  8
0
  6
Continuous
 62
     7
370
    25
100
AcDbLine
 10
-5.1875
 20
-0.5
 30
0.0
 11
-5.1875
 21
-0.6875
 31
0.0
  0
LINE
  5
2B8
330
1F
100
AcDbEntity
  8
0
  6
Continuous
 62
     7
370
    25
100
AcDbLine
 10
-4.7135890191
 20
-0.6875
 30
0.0
 11
-4.5625
 21
-0.6875
 31
0.0
  0
LINE
  5
2B9
330
1F
100
AcDbEntity
  8
0
  6
Continuous
 62
     7
370
    25
100
AcDbLine
 10
-4.4375
 20
-0.8125
 30
0.0
 11
-4.4375
 21
-1.25
 31
0.0
  0
LINE
  5
2BA
330
1F
100
AcDbEntity
  8
0
  6
Continuous
 62
     7
370
    25
100
AcDbLine
 10
-12.0
 20
-1.375
 30
0.0
 11
-4.5625
 21
-1.375
 31
0.0
  0
LINE
  5
2BB
330
1F
100
AcDbEntity
  8
0
  6
Continuous
 62
     7
370
    25
100
AcDbLine
 10
12.0
 20
1.375
 30
0.0
 11
-12.0
 21
1.375
 31
0.0
  0
LINE
  5
2BC
330
1F
100
AcDbEntity
  8
0
  6
Continuous
 62
     7
370
    25
100
AcDbLine
 10
0.0
 20
0.125
 30
0.0
 11
0.0
 21
1.375
 31
0.0
  0
LINE
  5
2BD
330
1F
100
AcDbEntity
  8
0
  6
Continuous
 62
     7
370
    25
100
AcDbLine
 10
-0.2165063509
 20
0.0
 30
0.0
 11
0.0
 21
0.125
 31
0.0
  0
LINE
  5
2BE
330
1F
100
AcDbEntity
  8
0
  6
Continuous
 62
     7
370
    25
100
AcDbLine
 10
0.0
 20
-0.125
 30
0.0
 11
-0.2165063509
 21
0.0
 31
0.0
  0
LINE
  5
2BF
330
1F
100
AcDbEntity
  8
0
  6
Continuous
 62
     7
370
    25
100
AcDbLine
 10
-12.0
 20
-1.375
 30
0.0
 11
-12.0
 21
1.375
 31
0.0
  0
LINE
  5
2C0
330
1F
100
AcDbEntity
  8
0
  6
Continuous
 62
     7
370
    25
100
AcDbLine
 10
0.0
 20
-0.125
 30
0.0
 11
0.2165063509
 21
0.0
 31
0.0
  0
LINE
  5
2C1
330
1F
100
AcDbEntity
  8
0
  6
Continuous
 62
     7
370
    25
100
AcDbLine
 10
0.2165063509
 20
0.0
 30
0.0
 11
0.0
 21
0.125
 31
0.0
  0
LINE
  5
2C2
330
1F
100
AcDbEntity
  8
0
  6
Continuous
 62
     7
370
    25
100
AcDbLine
 10
12.0
 20
1.375
 30
0.0
 11
12.0
 21
-1.375
 31
0.0
  0
LINE
  5
2C3
330
1F
100
AcDbEntity
  8
0
  6
Continuous
 62
     7
370
    25
100
AcDbLine
 10
11.75
 20
1.425980315
 30
0.0
 11
11.7491245707
 21
1.425980315
 31
0.0
  0
LINE
  5
2C4
330
1F
100
AcDbEntity
  8
0
  6
Continuous
 62
     7
370
    25
100
AcDbLine
 10
-11.7491245707
 20
1.425980315
 30
0.0
 11
-11.75
 21
1.425980315
 31
0.0
  0
LINE
  5
2C5
330
1F
100
AcDbEntity
  8
0
  6
Continuous
 62
     7
370
    25
100
AcDbLine
 10
-0.1875
 20
0.000625
 30
0.0
 11
-0.2154238192
 21
0.000625
 31
0.0
  0
LINE
  5
2C6
330
1F
100
AcDbEntity
  8
0
  6
Continuous
 62
     7
370
    25
100
AcDbLine
 10
0.2154238192
 20
0.000625
 30
0.0
 11
0.1875
 21
0.000625
 31
0.0
  0
LINE
  5
2C7
330
1F
100
AcDbEntity
  8
0
  6
Continuous
 62
     7
370
    25
100
AcDbLine
 10
-4.4375
 20
-0.975
 30
0.0
 11
-4.0625
 21
-0.975
 31
0.0
  0
ARC
  5
2C8
330
1F
100
AcDbEntity
  8
0
  6
Continuous
 62
     7
370
    25
100
AcDbCircle
 10
-8.625
 20
1.0890556007
 30
0.0
 40
1.000000000000129
100
AcDbArc
 50
122.9958854736
 51
163.3846918629
  0
ARC
  5
2C9
330
1F
100
AcDbEntity
  8
0
  6
Continuous
 62
     7
370
    25
100
AcDbCircle
 10
-8.625
 20
1.0890556007
 30
0.0
 40
0.968749999999719
100
AcDbArc
 50
122.9958854736
 51
162.832363623
  0
ARC
  5
2CA
330
1F
100
AcDbEntity
  8
0
  6
Continuous
 62
     7
370
    25
100
AcDbCircle
 10
8.625
 20
1.0890556007
 30
0.0
 40
0.9687499999998944
100
AcDbArc
 50
17.167636377
 51
57.0041145264
  0
ARC
  5
2CB
330
1F
100
AcDbEntity
  8
0
  6
Continuous
 62
     7
370
    25
100
AcDbCircle
 10
8.625
 20
1.0890556007
 30
0.0
 40
1.000000000000046
100
AcDbArc
 50
16.6153081371
 51
57.0041145264
  0
ARC
  5
2CC
330
1F
100
AcDbEntity
  8
0
  6
Continuous
 62
     7
370
    25
100
AcDbCircle
 10
-11.72
 20
1.4187859156
 30
0.0
 40
0.0299999999999994
100
AcDbArc
 50
90.0
 51
180.0
  0
ARC
  5
2CD
330
1F
100
AcDbEntity
  8
0
  6
Continuous
 62
     7
370
    25
100
AcDbCircle
 10
11.72
 20
1.4187859156
 30
0.0
 40
0.0299999999999905
100
AcDbArc
 50
360.0
 51
90.0
  0
ARC
  5
2CE
330
1F
100
AcDbEntity
  8
0
  6
Continuous
 62
     7
370
    25
100
AcDbCircle
 10
11.72
 20
1.425980315
 30
0.0
 40
0.0299999999999983
100
AcDbArc
 50
360.0
 51
90.0
  0
ARC
  5
2CF
330
1F
100
AcDbEntity
  8
0
  6
Continuous
 62
     7
370
    25
100
AcDbCircle
 10
-11.72
 20
1.425980315
 30
0.0
 40
0.0300000000000014
100
AcDbArc
 50
90.0
 51
180.0
  0
ARC
  5
2D0
330
1F
100
AcDbEntity
  8
0
  6
Continuous
 62
     7
370
    25
100
AcDbCircle
 10
11.1492435761
 20
1.4419447291
 30
0.0
 40
0.0745933466026283
100
AcDbArc
 50
10.8455029117
 51
82.9889583196
  0
ARC
  5
2D1
330
1F
100
AcDbEntity
  8
0
  6
Continuous
 62
     7
370
    25
100
AcDbCircle
 10
11.1583484861
 20
1.415980315
 30
0.0
 40
0.0999999999999974
100
AcDbArc
 50
23.5781784782
 51
90.0
  0
ARC
  5
2D2
330
1F
100
AcDbEntity
  8
0
  6
Continuous
 62
     7
370
    25
100
AcDbCircle
 10
-5.0383080582
 20
-0.346875
 30
0.0
 40
0.1874999999999914
100
AcDbArc
 50
218.9382239481
 51
0.0
  0
ARC
  5
2D3
330
1F
100
AcDbEntity
  8
0
  6
Continuous
 62
     7
370
    25
100
AcDbCircle
 10
-3.9375
 20
-1.25
 30
0.0
 40
0.1250000000000044
100
AcDbArc
 50
180.0
 51
270.0
  0
ARC
  5
2D4
330
1F
100
AcDbEntity
  8
0
  6
Continuous
 62
     7
370
    25
100
AcDbCircle
 10
-4.25
 20
-0.5
 30
0.0
 40
0.1875000000000108
100
AcDbArc
 50
0.0
 51
90.0
  0
ARC
  5
2D5
330
1F
100
AcDbEntity
  8
0
  6
Continuous
 62
     7
370
    25
100
AcDbCircle
 10
-5.0
 20
-0.5
 30
0.0
 40
0.1874999999999921
100
AcDbArc
 50
90.0
 51
180.0
  0
ARC
  5
2D6
330
1F
100
AcDbEntity
  8
0
  6
Continuous
 62
     7
370
    25
100
AcDbCircle
 10
-5.0
 20
-0.6875
 30
0.0
 40
0.1875000000000007
100
AcDbArc
 50
180.0
 51
336.4218215218
  0
ARC
  5
2D7
330
1F
100
AcDbEntity
  8
0
  6
Continuous
 62
     7
370
    25
100
AcDbCircle
 10
-4.7135890191
 20
-0.8125
 30
0.0
 40
0.1249999999999576
100
AcDbArc
 50
90.0
 51
156.4218215218
  0
ARC
  5
2D8
330
1F
100
AcDbEntity
  8
0
  6
Continuous
 62
     7
370
    25
100
AcDbCircle
 10
-4.5625
 20
-0.8125
 30
0.0
 40
0.1250000000000037
100
AcDbArc
 50
360.0
 51
90.0
  0
ARC
  5
2D9
330
1F
100
AcDbEntity
  8
0
  6
Continuous
 62
     7
370
    25
100
AcDbCircle
 10
-4.5625
 20
-1.25
 30
0.0
 40
0.124999999999984
100
AcDbArc
 50
270.0
 51
0.0
  0
ENDSEC
  0
SECTION
  2
OBJECTS
  0
DICTIONARY
  5
C
330
0
100
AcDbDictionary
281
     1
  3
ACAD_GROUP
350
D
  3
ACAD_LAYOUT
350
1A
  3
ACAD_MLINESTYLE
350
17
  3
ACAD_PLOTSETTINGS
350
19
  3
ACAD_PLOTSTYLENAME
350
E
  3
ACAD_SCALELIST
350
47
  3
DWGPROPS
350
2DA
  0
DICTIONARY
  5
D
102
{ACAD_REACTORS
330
C
102
}
330
C
100
AcDbDictionary
281
     1
  0
DICTIONARY
  5
1A
102
{ACAD_REACTORS
330
C
102
}
330
C
100
AcDbDictionary
281
     1
  3
Layout1
350
1E
  3
Layout2
350
26
  3
Model
350
22
  0
DICTIONARY
  5
17
102
{ACAD_REACTORS
330
C
102
}
330
C
100
AcDbDictionary
281
     1
  3
Standard
350
18
  0
DICTIONARY
  5
19
102
{ACAD_REACTORS
330
C
102
}
330
C
100
AcDbDictionary
281
     1
  0
ACDBDICTIONARYWDFLT
  5
E
102
{ACAD_REACTORS
330
C
102
}
330
C
100
AcDbDictionary
281
     1
  3
Normal
350
F
100
AcDbDictionaryWithDefault
340
F
  0
DICTIONARY
  5
47
102
{ACAD_REACTORS
330
C
102
}
330
C
100
AcDbDictionary
281
     1
  3
A0
350
48
  3
A1
350
49
  3
A2
350
4A
  3
A3
350
4B
  3
A4
350
4C
  3
A5
350
4D
  3
A6
350
4E
  3
A7
350
4F
  3
A8
350
50
  3
A9
350
51
  3
B1
350
52
  3
B2
350
53
  3
B3
350
54
  3
B4
350
55
  3
B5
350
56
  3
B6
350
57
  3
B7
350
58
  0
XRECORD
  5
2DA
102
{ACAD_REACTORS
330
C
102
}
330
C
100
AcDbXrecord
280
     1
  1
DWGPROPS COOKIE
  2

  3

  4

  6

  7

  8
rmcneal
  9

300
=
301
=
302
=
303
=
304
=
305
=
306
=
307
=
308
=
309
=
 40
0.0
 41
2460900.775667871
 42
2460900.775696134
  1

 90
        0
  0
LAYOUT
  5
1E
102
{ACAD_REACTORS
330
1A
102
}
330
1A
100
AcDbPlotSettings
  1

  2
none_device
  4

  6

 40
0.0
 41
0.0
 42
0.0
 43
0.0
 44
0.0
 45
0.0
 46
0.0
 47
0.0
 48
0.0
 49
0.0
140
0.0
141
0.0
142
1.0
143
1.0
 70
   688
 72
     0
 73
     0
 74
     5
  7

 75
    16
147
1.0
148
0.0
149
0.0
100
AcDbLayout
  1
Layout1
 70
     1
 71
     1
 10
0.0
 20
0.0
 11
12.0
 21
9.0
 12
0.0
 22
0.0
 32
0.0
 14
1.0000000000E+20
 24
1.0000000000E+20
 34
1.0000000000E+20
 15
-1.0000000000E+20
 25
-1.0000000000E+20
 35
-1.0000000000E+20
146
0.0
 13
0.0
 23
0.0
 33
0.0
 16
1.0
 26
0.0
 36
0.0
 17
0.0
 27
1.0
 37
0.0
 76
     0
330
1B
  0
LAYOUT
  5
26
102
{ACAD_REACTORS
330
1A
102
}
330
1A
100
AcDbPlotSettings
  1

  2
none_device
  4

  6

 40
0.0
 41
0.0
 42
0.0
 43
0.0
 44
0.0
 45
0.0
 46
0.0
 47
0.0
 48
0.0
 49
0.0
140
0.0
141
0.0
142
1.0
143
1.0
 70
   688
 72
     0
 73
     0
 74
     5
  7

 75
    16
147
1.0
148
0.0
149
0.0
100
AcDbLayout
  1
Layout2
 70
     1
 71
     2
 10
0.0
 20
0.0
 11
0.0
 21
0.0
 12
0.0
 22
0.0
 32
0.0
 14
0.0
 24
0.0
 34
0.0
 15
0.0
 25
0.0
 35
0.0
146
0.0
 13
0.0
 23
0.0
 33
0.0
 16
1.0
 26
0.0
 36
0.0
 17
0.0
 27
1.0
 37
0.0
 76
     0
330
23
  0
LAYOUT
  5
22
102
{ACAD_REACTORS
330
1A
102
}
330
1A
100
AcDbPlotSettings
  1

  2
none_device
  4
ANSI_A_(11.00_x_8.50_Inches)
  6

 40
6.35
 41
19.05
 42
6.35000508
 43
19.05000254
 44
279.4
 45
215.9
 46
133.34999746
 47
85.2156321617
 48
0.0
 49
0.0
140
0.0
141
0.0
142
0.45375
143
1.0
 70
  1696
 72
     0
 73
     0
 74
     0
  7

 75
     0
147
0.5913241897
148
-39.4088153714
149
0.0
100
AcDbLayout
  1
Model
 70
     1
 71
     0
 10
0.0
 20
0.0
 11
12.0
 21
9.0
 12
0.0
 22
0.0
 32
0.0
 14
-12.0
 24
-1.4497
 34
0.0
 15
12.0
 25
2.0890556007
 35
0.0
146
0.0
 13
0.0
 23
0.0
 33
0.0
 16
1.0
 26
0.0
 36
0.0
 17
0.0
 27
1.0
 37
0.0
 76
     0
330
1F
331
29
  0
MLINESTYLE
  5
18
102
{ACAD_REACTORS
330
17
102
}
330
17
100
AcDbMlineStyle
  2
Standard
 70
     0
  3

 62
   256
 51
90.0
 52
90.0
 71
     2
 49
0.5
 62
   256
  6
BYLAYER
 49
-0.5
 62
   256
  6
BYLAYER
  0
ACDBPLACEHOLDER
  5
F
102
{ACAD_REACTORS
330
E
102
}
330
E
  0
SCALE
  5
48
102
{ACAD_REACTORS
330
47
102
}
330
47
100
AcDbScale
 70
     0
300
1:1
140
1.0
141
1.0
290
     1
  0
SCALE
  5
49
102
{ACAD_REACTORS
330
47
102
}
330
47
100
AcDbScale
 70
     0
300
1/128" = 1'-0"
140
0.0078125
141
12.0
290
     0
  0
SCALE
  5
4A
102
{ACAD_REACTORS
330
47
102
}
330
47
100
AcDbScale
 70
     0
300
1/64" = 1'-0"
140
0.015625
141
12.0
290
     0
  0
SCALE
  5
4B
102
{ACAD_REACTORS
330
47
102
}
330
47
100
AcDbScale
 70
     0
300
1/32" = 1'-0"
140
0.03125
141
12.0
290
     0
  0
SCALE
  5
4C
102
{ACAD_REACTORS
330
47
102
}
330
47
100
AcDbScale
 70
     0
300
1/16" = 1'-0"
140
0.0625
141
12.0
290
     0
  0
SCALE
  5
4D
102
{ACAD_REACTORS
330
47
102
}
330
47
100
AcDbScale
 70
     0
300
3/32" = 1'-0"
140
0.09375
141
12.0
290
     0
  0
SCALE
  5
4E
102
{ACAD_REACTORS
330
47
102
}
330
47
100
AcDbScale
 70
     0
300
1/8" = 1'-0"
140
0.125
141
12.0
290
     0
  0
SCALE
  5
4F
102
{ACAD_REACTORS
330
47
102
}
330
47
100
AcDbScale
 70
     0
300
3/16" = 1'-0"
140
0.1875
141
12.0
290
     0
  0
SCALE
  5
50
102
{ACAD_REACTORS
330
47
102
}
330
47
100
AcDbScale
 70
     0
300
1/4" = 1'-0"
140
0.25
141
12.0
290
     0
  0
SCALE
  5
51
102
{ACAD_REACTORS
330
47
102
}
330
47
100
AcDbScale
 70
     0
300
3/8" = 1'-0"
140
0.375
141
12.0
290
     0
  0
SCALE
  5
52
102
{ACAD_REACTORS
330
47
102
}
330
47
100
AcDbScale
 70
     0
300
1/2" = 1'-0"
140
0.5
141
12.0
290
     0
  0
SCALE
  5
53
102
{ACAD_REACTORS
330
47
102
}
330
47
100
AcDbScale
 70
     0
300
3/4" = 1'-0"
140
0.75
141
12.0
290
     0
  0
SCALE
  5
54
102
{ACAD_REACTORS
330
47
102
}
330
47
100
AcDbScale
 70
     0
300
1" = 1'-0"
140
1.0
141
12.0
290
     0
  0
SCALE
  5
55
102
{ACAD_REACTORS
330
47
102
}
330
47
100
AcDbScale
 70
     0
300
1-1/2" = 1'-0"
140
1.5
141
12.0
290
     0
  0
SCALE
  5
56
102
{ACAD_REACTORS
330
47
102
}
330
47
100
AcDbScale
 70
     0
300
3" = 1'-0"
140
3.0
141
12.0
290
     0
  0
SCALE
  5
57
102
{ACAD_REACTORS
330
47
102
}
330
47
100
AcDbScale
 70
     0
300
6" = 1'-0"
140
6.0
141
12.0
290
     0
  0
SCALE
  5
58
102
{ACAD_REACTORS
330
47
102
}
330
47
100
AcDbScale
 70
     0
300
1'-0" = 1'-0"
140
12.0
141
12.0
290
     0
  0
ENDSEC
  0
EOF
