  0
SECTION
  2
HEADER
  9
$ACADVER
  1
AC1015
  9
$ACADMAINTVER
 70
     6
  9
$DWGCODEPAGE
  3
ANSI_1252
  9
$INSBASE
 10
0.0
 20
0.0
 30
0.0
  9
$EXTMIN
 10
-12.0
 20
-21.25
 30
0.0
  9
$EXTMAX
 10
12.0
 20
21.25
 30
0.0
  9
$LIMMIN
 10
0.0
 20
0.0
  9
$LIMMAX
 10
12.0
 20
9.0
  9
$ORTHOMODE
 70
     0
  9
$REGENMODE
 70
     1
  9
$FILLMODE
 70
     1
  9
$QTEXTMODE
 70
     0
  9
$MIRRTEXT
 70
     1
  9
$LTSCALE
 40
1.0
  9
$ATTMODE
 70
     1
  9
$TEXTSIZE
 40
0.1388888889
  9
$TRACEWID
 40
0.05
  9
$TEXTSTYLE
  7
Standard
  9
$CLAYER
  8
0
  9
$CELTYPE
  6
ByLayer
  9
$CECOLOR
 62
   256
  9
$CELTSCALE
 40
1.0
  9
$DISPSILH
 70
     0
  9
$DIMSCALE
 40
1.0
  9
$DIMASZ
 40
0.075
  9
$DIMEXO
 40
0.0
  9
$DIMDLI
 40
0.38
  9
$DIMRND
 40
0.0
  9
$DIMDLE
 40
0.0
  9
$DIMEXE
 40
0.05
  9
$DIMTP
 40
0.0
  9
$DIMTM
 40
0.0
  9
$DIMTXT
 40
0.1388888889
  9
$DIMCEN
 40
0.09
  9
$DIMTSZ
 40
0.0
  9
$DIMTOL
 70
     0
  9
$DIMLIM
 70
     0
  9
$DIMTIH
 70
     1
  9
$DIMTOH
 70
     1
  9
$DIMSE1
 70
     0
  9
$DIMSE2
 70
     0
  9
$DIMTAD
 70
     0
  9
$DIMZIN
 70
     1
  9
$DIMBLK
  1

  9
$DIMASO
 70
     1
  9
$DIMSHO
 70
     1
  9
$DIMPOST
  1

  9
$DIMAPOST
  1

  9
$DIMALT
 70
     0
  9
$DIMALTD
 70
     2
  9
$DIMALTF
 40
25.4
  9
$DIMLFAC
 40
1.0
  9
$DIMTOFL
 70
     0
  9
$DIMTVP
 40
0.0
  9
$DIMTIX
 70
     0
  9
$DIMSOXD
 70
     0
  9
$DIMSAH
 70
     0
  9
$DIMBLK1
  1

  9
$DIMBLK2
  1

  9
$DIMSTYLE
  2
Standard
  9
$DIMCLRD
 70
     0
  9
$DIMCLRE
 70
     0
  9
$DIMCLRT
 70
     0
  9
$DIMTFAC
 40
1.0
  9
$DIMGAP
 40
0.08
  9
$DIMJUST
 70
     0
  9
$DIMSD1
 70
     0
  9
$DIMSD2
 70
     0
  9
$DIMTOLJ
 70
     1
  9
$DIMTZIN
 70
     1
  9
$DIMALTZ
 70
     0
  9
$DIMALTTZ
 70
     0
  9
$DIMUPT
 70
     0
  9
$DIMDEC
 70
     3
  9
$DIMTDEC
 70
     3
  9
$DIMALTU
 70
     2
  9
$DIMALTTD
 70
     2
  9
$DIMTXSTY
  7
Standard
  9
$DIMAUNIT
 70
     0
  9
$DIMADEC
 70
     1
  9
$DIMALTRND
 40
0.0
  9
$DIMAZIN
 70
     0
  9
$DIMDSEP
 70
    46
  9
$DIMATFIT
 70
     3
  9
$DIMFRAC
 70
     0
  9
$DIMLDRBLK
  1

  9
$DIMLUNIT
 70
     2
  9
$DIMLWD
 70
    -2
  9
$DIMLWE
 70
    -2
  9
$DIMTMOVE
 70
     0
  9
$LUNITS
 70
     2
  9
$LUPREC
 70
     6
  9
$SKETCHINC
 40
0.1
  9
$FILLETRAD
 40
0.0
  9
$AUNITS
 70
     0
  9
$AUPREC
 70
     1
  9
$MENU
  1
.
  9
$ELEVATION
 40
0.0
  9
$PELEVATION
 40
0.0
  9
$THICKNESS
 40
0.0
  9
$LIMCHECK
 70
     0
  9
$CHAMFERA
 40
0.0
  9
$CHAMFERB
 40
0.0
  9
$CHAMFERC
 40
0.0
  9
$CHAMFERD
 40
0.0
  9
$SKPOLY
 70
     0
  9
$TDCREATE
 40
2460900.567304202
  9
$TDUCREATE
 40
2460900.775637535
  9
$TDUPDATE
 40
2460900.567361817
  9
$TDUUPDATE
 40
2460900.775695151
  9
$TDINDWG
 40
0.0000000116
  9
$TDUSRTIMER
 40
0.0000000116
  9
$USRTIMER
 70
     1
  9
$ANGBASE
 50
0.0
  9
$ANGDIR
 70
     0
  9
$PDMODE
 70
     0
  9
$PDSIZE
 40
-1.0
  9
$PLINEWID
 40
0.0
  9
$SPLFRAME
 70
     0
  9
$SPLINETYPE
 70
     6
  9
$SPLINESEGS
 70
     8
  9
$HANDSEED
  5
380
  9
$SURFTAB1
 70
     6
  9
$SURFTAB2
 70
     6
  9
$SURFTYPE
 70
     6
  9
$SURFU
 70
     6
  9
$SURFV
 70
     6
  9
$UCSBASE
  2

  9
$UCSNAME
  2

  9
$UCSORG
 10
0.0
 20
0.0
 30
0.0
  9
$UCSXDIR
 10
1.0
 20
0.0
 30
0.0
  9
$UCSYDIR
 10
0.0
 20
1.0
 30
0.0
  9
$UCSORTHOREF
  2

  9
$UCSORTHOVIEW
 70
     0
  9
$UCSORGTOP
 10
0.0
 20
0.0
 30
0.0
  9
$UCSORGBOTTOM
 10
0.0
 20
0.0
 30
0.0
  9
$UCSORGLEFT
 10
0.0
 20
0.0
 30
0.0
  9
$UCSORGRIGHT
 10
0.0
 20
0.0
 30
0.0
  9
$UCSORGFRONT
 10
0.0
 20
0.0
 30
0.0
  9
$UCSORGBACK
 10
0.0
 20
0.0
 30
0.0
  9
$PUCSBASE
  2

  9
$PUCSNAME
  2

  9
$PUCSORG
 10
0.0
 20
0.0
 30
0.0
  9
$PUCSXDIR
 10
1.0
 20
0.0
 30
0.0
  9
$PUCSYDIR
 10
0.0
 20
1.0
 30
0.0
  9
$PUCSORTHOREF
  2

  9
$PUCSORTHOVIEW
 70
     0
  9
$PUCSORGTOP
 10
0.0
 20
0.0
 30
0.0
  9
$PUCSORGBOTTOM
 10
0.0
 20
0.0
 30
0.0
  9
$PUCSORGLEFT
 10
0.0
 20
0.0
 30
0.0
  9
$PUCSORGRIGHT
 10
0.0
 20
0.0
 30
0.0
  9
$PUCSORGFRONT
 10
0.0
 20
0.0
 30
0.0
  9
$PUCSORGBACK
 10
0.0
 20
0.0
 30
0.0
  9
$USERI1
 70
     0
  9
$USERI2
 70
     0
  9
$USERI3
 70
     0
  9
$USERI4
 70
     0
  9
$USERI5
 70
     0
  9
$USERR1
 40
0.0
  9
$USERR2
 40
0.0
  9
$USERR3
 40
0.0
  9
$USERR4
 40
0.0
  9
$USERR5
 40
0.0
  9
$WORLDVIEW
 70
     1
  9
$SHADEDGE
 70
     3
  9
$SHADEDIF
 70
    70
  9
$TILEMODE
 70
     1
  9
$MAXACTVP
 70
    64
  9
$PINSBASE
 10
0.0
 20
0.0
 30
0.0
  9
$PLIMCHECK
 70
     0
  9
$PEXTMIN
 10
1.0000000000E+20
 20
1.0000000000E+20
 30
1.0000000000E+20
  9
$PEXTMAX
 10
-1.0000000000E+20
 20
-1.0000000000E+20
 30
-1.0000000000E+20
  9
$PLIMMIN
 10
0.0
 20
0.0
  9
$PLIMMAX
 10
12.0
 20
9.0
  9
$UNITMODE
 70
     0
  9
$VISRETAIN
 70
     1
  9
$PLINEGEN
 70
     0
  9
$PSLTSCALE
 70
     1
  9
$TREEDEPTH
 70
  3020
  9
$CMLSTYLE
  2
Standard
  9
$CMLJUST
 70
     0
  9
$CMLSCALE
 40
1.0
  9
$PROXYGRAPHICS
 70
     1
  9
$MEASUREMENT
 70
     0
  9
$CELWEIGHT
370
    -1
  9
$ENDCAPS
280
     0
  9
$JOINSTYLE
280
     0
  9
$LWDISPLAY
290
     1
  9
$INSUNITS
 70
     1
  9
$HYPERLINKBASE
  1

  9
$STYLESHEET
  1

  9
$XEDIT
290
     1
  9
$CEPSNTYPE
380
     0
  9
$PSTYLEMODE
290
     1
  9
$FINGERPRINTGUID
  2
{c4b09898-640d-41d2-bf48-e75344137a00}
  9
$VERSIONGUID
  2
{FAEB1C32-E019-11D5-929B-00C0DF256EC4}
  9
$EXTNAMES
290
     1
  9
$PSVPSCALE
 40
0.0
  9
$OLESTARTUP
290
     0
  0
ENDSEC
  0
SECTION
  2
CLASSES
  0
CLASS
  1
ACDBDICTIONARYWDFLT
  2
AcDbDictionaryWithDefault
  3
ObjectDBX Classes
 90
        0
280
     0
281
     0
  0
CLASS
  1
VISUALSTYLE
  2
AcDbVisualStyle
  3
ObjectDBX Classes
 90
     4095
280
     0
281
     0
  0
CLASS
  1
MATERIAL
  2
AcDbMaterial
  3
ObjectDBX Classes
 90
     1153
280
     0
281
     0
  0
CLASS
  1
SCALE
  2
AcDbScale
  3
ObjectDBX Classes
 90
     1153
280
     0
281
     0
  0
CLASS
  1
TABLESTYLE
  2
AcDbTableStyle
  3
ObjectDBX Classes
 90
     4095
280
     0
281
     0
  0
CLASS
  1
MLEADERSTYLE
  2
AcDbMLeaderStyle
  3
ACDB_MLEADERSTYLE_CLASS
 90
     4095
280
     0
281
     0
  0
CLASS
  1
SUN
  2
AcDbSun
  3
SCENEOE
 90
     1153
280
     0
281
     0
  0
CLASS
  1
ACDBPLACEHOLDER
  2
AcDbPlaceHolder
  3
ObjectDBX Classes
 90
        0
280
     0
281
     0
  0
CLASS
  1
LAYOUT
  2
AcDbLayout
  3
ObjectDBX Classes
 90
        0
280
     0
281
     0
  0
ENDSEC
  0
SECTION
  2
TABLES
  0
TABLE
  2
VPORT
  5
8
330
0
100
AcDbSymbolTable
 70
     1
  0
VPORT
  5
29
330
8
100
AcDbSymbolTableRecord
100
AcDbViewportTableRecord
  2
*Active
 70
     0
 10
0.0
 20
0.0
 11
1.0
 21
1.0
 12
0.0
 22
0.0
 13
0.0
 23
0.0
 14
0.5
 24
0.5
 15
0.5
 25
0.5
 16
0.0
 26
0.0
 36
1.0
 17
0.0
 27
0.0
 37
0.0
 40
43.35
 41
0.5647058824
 42
50.0
 43
0.0
 44
0.0
 50
0.0
 51
0.0
 71
     0
 72
   100
 73
     1
 74
     3
 75
     0
 76
     0
 77
     0
 78
     0
281
     0
 65
     1
110
0.0
120
0.0
130
0.0
111
1.0
121
0.0
131
0.0
112
0.0
122
1.0
132
0.0
 79
     0
146
0.0
  0
ENDTAB
  0
TABLE
  2
LTYPE
  5
5
330
0
100
AcDbSymbolTable
 70
     6
  0
LTYPE
  5
14
330
5
100
AcDbSymbolTableRecord
100
AcDbLinetypeTableRecord
  2
ByBlock
 70
     0
  3

 72
    65
 73
     0
 40
0.0
  0
LTYPE
  5
15
330
5
100
AcDbSymbolTableRecord
100
AcDbLinetypeTableRecord
  2
ByLayer
 70
     0
  3

 72
    65
 73
     0
 40
0.0
  0
LTYPE
  5
16
330
5
100
AcDbSymbolTableRecord
100
AcDbLinetypeTableRecord
  2
Continuous
 70
     0
  3
Solid line
 72
    65
 73
     0
 40
0.0
  0
LTYPE
  5
5E
330
5
100
AcDbSymbolTableRecord
100
AcDbLinetypeTableRecord
  2
HIDDEN
 70
     0
  3
Hidden __ __ __ __ __ __ __ __ __ __ __ __ __ __
 72
    65
 73
     2
 40
0.075
 49
0.05
 74
     0
 49
-0.025
 74
     0
  0
LTYPE
  5
5F
330
5
100
AcDbSymbolTableRecord
100
AcDbLinetypeTableRecord
  2
PHANTOM
 70
     0
  3
Phantom ______  __  __  ______  __  __  ______
 72
    65
 73
     6
 40
0.5
 49
0.25
 74
     0
 49
-0.05
 74
     0
 49
0.05
 74
     0
 49
-0.05
 74
     0
 49
0.05
 74
     0
 49
-0.05
 74
     0
  0
LTYPE
  5
60
330
5
100
AcDbSymbolTableRecord
100
AcDbLinetypeTableRecord
  2
CENTER
 70
     0
  3
Center ____ _ ____ _ ____ _ ____ _ ____ _ ____
 72
    65
 73
     4
 40
0.4
 49
0.25
 74
     0
 49
-0.05
 74
     0
 49
0.05
 74
     0
 49
-0.05
 74
     0
  0
LTYPE
  5
61
330
5
100
AcDbSymbolTableRecord
100
AcDbLinetypeTableRecord
  2
CENTERX2
 70
     0
  3
Center (2x) ________  __  ________  __  _____
 72
    65
 73
     4
 40
0.8
 49
0.5
 74
     0
 49
-0.1
 74
     0
 49
0.1
 74
     0
 49
-0.1
 74
     0
  0
LTYPE
  5
62
330
5
100
AcDbSymbolTableRecord
100
AcDbLinetypeTableRecord
  2
DOT2
 70
     0
  3
Dot (.5x) ........................................
 72
    65
 73
     2
 40
0.025
 49
0.0
 74
     0
 49
-0.025
 74
     0
  0
ENDTAB
  0
TABLE
  2
LAYER
  5
2
330
0
100
AcDbSymbolTable
 70
     1
  0
LAYER
  5
10
330
2
100
AcDbSymbolTableRecord
100
AcDbLayerTableRecord
  2
0
 70
     0
 62
     7
  6
Continuous
370
    -3
390
F
  0
ENDTAB
  0
TABLE
  2
STYLE
  5
3
330
0
100
AcDbSymbolTable
 70
     1
  0
STYLE
  5
11
330
3
100
AcDbSymbolTableRecord
100
AcDbTextStyleTableRecord
  2
Standard
 70
     0
 40
0.0
 41
1.0
 50
0.0
 71
     0
 42
0.1388888889
  3
txt
  4

  0
ENDTAB
  0
TABLE
  2
VIEW
  5
6
330
0
100
AcDbSymbolTable
 70
     0
  0
ENDTAB
  0
TABLE
  2
UCS
  5
7
330
0
100
AcDbSymbolTable
 70
     0
  0
ENDTAB
  0
TABLE
  2
APPID
  5
9
330
0
100
AcDbSymbolTable
 70
     1
  0
APPID
  5
12
330
9
100
AcDbSymbolTableRecord
100
AcDbRegAppTableRecord
  2
ACAD
 70
     0
  0
ENDTAB
  0
TABLE
  2
DIMSTYLE
  5
A
330
0
100
AcDbSymbolTable
 70
     1
100
AcDbDimStyleTable
  0
DIMSTYLE
105
27
330
A
100
AcDbSymbolTableRecord
100
AcDbDimStyleTableRecord
  2
Standard
 70
     0
178
     0
340
11
  0
ENDTAB
  0
TABLE
  2
BLOCK_RECORD
  5
1
330
0
100
AcDbSymbolTable
 70
     1
  0
BLOCK_RECORD
  5
1F
330
1
100
AcDbSymbolTableRecord
100
AcDbBlockTableRecord
  2
*Model_Space
340
22
  0
BLOCK_RECORD
  5
1B
330
1
100
AcDbSymbolTableRecord
100
AcDbBlockTableRecord
  2
*Paper_Space
340
1E
  0
BLOCK_RECORD
  5
23
330
1
100
AcDbSymbolTableRecord
100
AcDbBlockTableRecord
  2
*Paper_Space0
340
26
  0
ENDTAB
  0
ENDSEC
  0
SECTION
  2
BLOCKS
  0
BLOCK
  5
20
330
1F
100
AcDbEntity
  8
0
100
AcDbBlockBegin
  2
*Model_Space
 70
     0
 10
0.0
 20
0.0
 30
0.0
  3
*Model_Space
  1

  0
ENDBLK
  5
21
330
1F
100
AcDbEntity
  8
0
100
AcDbBlockEnd
  0
BLOCK
  5
1C
330
1B
100
AcDbEntity
 67
     1
  8
0
100
AcDbBlockBegin
  2
*Paper_Space
 70
     0
 10
0.0
 20
0.0
 30
0.0
  3
*Paper_Space
  1

  0
ENDBLK
  5
1D
330
1B
100
AcDbEntity
 67
     1
  8
0
100
AcDbBlockEnd
  0
BLOCK
  5
24
330
23
100
AcDbEntity
  8
0
100
AcDbBlockBegin
  2
*Paper_Space0
 70
     0
 10
0.0
 20
0.0
 30
0.0
  3
*Paper_Space0
  1

  0
ENDBLK
  5
25
330
23
100
AcDbEntity
  8
0
100
AcDbBlockEnd
  0
ENDSEC
  0
SECTION
  2
ENTITIES
  0
CIRCLE
  5
63
330
1F
100
AcDbEntity
  8
0
  6
Continuous
 62
     7
100
AcDbCircle
 10
-9.92
 20
-20.74625
 30
0.0
 40
0.1249999999999997
  0
CIRCLE
  5
64
330
1F
100
AcDbEntity
  8
0
  6
Continuous
 62
     7
100
AcDbCircle
 10
8.33
 20
-20.74625
 30
0.0
 40
0.1249999999999997
  0
LWPOLYLINE
  5
65
330
1F
100
AcDbEntity
  8
0
  6
Continuous
 62
     7
100
AcDbPolyline
 90
       17
 70
   128
 43
0.0
 10
9.9226877008
 20
4.7737904277
 10
9.8996026792
 20
4.781250929
 10
9.8618335516
 20
4.7866094811
 10
9.8151303254
 20
4.789050293
 10
9.7666031432
 20
4.7882017733
 10
9.7236398288
 20
4.7841931014
 10
9.6927811572
 20
4.7776345612
 10
9.6787250815
 20
4.7695246311
 10
9.6836115118
 20
4.7610979743
 10
9.7066965334
 20
4.753637473
 10
9.744465661
 20
4.748278921
 10
9.7911688872
 20
4.745838109
 10
9.8396960694
 20
4.7466866288
 10
9.8826593838
 20
4.7506953007
 10
9.9135180554
 20
4.7572538409
 10
9.9275741311
 20
4.765363771
 10
9.9226877008
 20
4.7737904277
  0
SPLINE
  5
8B
330
1F
100
AcDbEntity
  8
0
  6
Continuous
 62
     7
370
    25
100
AcDbSpline
210
0.0
220
0.0
230
1.0
 70
     8
 71
     3
 72
    12
 73
     8
 74
     0
 42
0.00000001
 43
0.00000001
 40
0.0
 40
0.0
 40
0.0
 40
0.0
 40
0.2258381328793438
 40
0.4606963753703925
 40
0.6274689980129208
 40
0.8073993009605995
 40
1.0
 40
1.0
 40
1.0
 40
1.0
 10
-9.051971963206292
 20
-20.9858018130367
 30
0.0
 10
-9.0355666779796
 20
-20.98369169385426
 30
0.0
 10
-9.00210087065781
 20
-20.97938717607177
 30
0.0
 10
-8.962179464248669
 20
-20.95165022057033
 30
0.0
 10
-8.930517544463282
 20
-20.92114287154224
 30
0.0
 10
-8.901799371284717
 20
-20.89137280479466
 30
0.0
 10
-8.879302049467917
 20
-20.87122061341938
 30
0.0
 10
-8.867670802980196
 20
-20.86080181303674
 30
0.0
  0
SPLINE
  5
8C
330
1F
100
AcDbEntity
  8
0
  6
Continuous
 62
     7
370
    25
100
AcDbSpline
210
0.0
220
0.0
230
1.0
 70
     8
 71
     3
 72
    12
 73
     8
 74
     0
 42
0.00000001
 43
0.00000001
 40
0.0
 40
0.0
 40
0.0
 40
0.0
 40
0.1667017100169556
 40
0.3321492120643685
 40
0.4972368530715918
 40
0.7475266050133815
 40
1.0
 40
1.0
 40
1.0
 40
1.0
 10
-8.867670802980196
 20
-20.86080181303674
 30
0.0
 10
-8.875239762560629
 20
-20.87400427209295
 30
0.0
 10
-8.890320735398472
 20
-20.90030985931451
 30
0.0
 10
-8.915994192272036
 20
-20.93767435853032
 30
0.0
 10
-8.951816430172203
 20
-20.97576286811535
 30
0.0
 10
-9.002358469076402
 20
-21.00945871277175
 30
0.0
 10
-9.044555233744983
 20
-21.01451346154554
 30
0.0
 10
-9.065745252342042
 20
-21.01705181303675
 30
0.0
  0
SPLINE
  5
8D
330
1F
100
AcDbEntity
  8
0
  6
Continuous
 62
     7
370
    25
100
AcDbSpline
210
0.0
220
0.0
230
1.0
 70
     8
 71
     3
 72
    12
 73
     8
 74
     0
 42
0.00000001
 43
0.00000001
 40
0.0
 40
0.0
 40
0.0
 40
0.0
 40
0.2524733924427131
 40
0.5027631418625256
 40
0.6678446490820003
 40
0.833292205861787
 40
0.9999999999999999
 40
0.9999999999999999
 40
0.9999999999999999
 40
0.9999999999999999
 10
9.065745252346133
 20
-21.01705181303677
 30
0.0
 10
9.044555234768533
 20
-21.01451346133086
 30
0.0
 10
9.002358472130053
 20
-21.00945871212949
 30
0.0
 10
8.951816883883282
 20
-20.97576317968867
 30
0.0
 10
8.915994935463788
 20
-20.93767519086045
 30
0.0
 10
8.89032127263077
 20
-20.90031084136203
 30
0.0
 10
8.875240032879036
 20
-20.87400475862598
 30
0.0
 10
8.867670802984252
 20
-20.86080181303674
 30
0.0
  0
SPLINE
  5
8E
330
1F
100
AcDbEntity
  8
0
  6
Continuous
 62
     7
370
    25
100
AcDbSpline
210
0.0
220
0.0
230
1.0
 70
     8
 71
     3
 72
    12
 73
     8
 74
     0
 42
0.00000001
 43
0.00000001
 40
0.0
 40
0.0
 40
0.0
 40
0.0
 40
0.1925939926764985
 40
0.372524852992981
 40
0.539303630052482
 40
0.7741618697790189
 40
1.0
 40
1.0
 40
1.0
 40
1.0
 10
8.867670802984252
 20
-20.86080181303674
 30
0.0
 10
8.879301652594375
 20
-20.87122025526117
 30
0.0
 10
8.901798618782058
 20
-20.89137212294998
 30
0.0
 10
8.9305168756612
 20
-20.92114214331097
 30
0.0
 10
8.962179070036822
 20
-20.95164995987615
 30
0.0
 10
9.002100871349263
 20
-20.97938717296106
 30
0.0
 10
9.035566678209806
 20
-20.98369169283098
 30
0.0
 10
9.051971963210384
 20
-20.98580181303669
 30
0.0
  0
SPLINE
  5
95
330
1F
100
AcDbEntity
  8
0
  6
Continuous
 62
     7
370
    25
100
AcDbSpline
210
0.0
220
0.0
230
1.0
 70
     8
 71
     3
 72
    16
 73
    12
 74
     0
 42
0.00000001
 43
0.00000001
 40
0.0
 40
0.0
 40
0.0
 40
0.0
 40
0.1256760229507697
 40
0.2506347224845666
 40
0.3762900936787224
 40
0.5012089774633199
 40
0.6001127540190273
 40
0.6995397557593387
 40
0.799064172604295
 40
0.8979879047759983
 40
1.0
 40
1.0
 40
1.0
 40
1.0
 10
-9.169578806970048
 20
-21.05017681303669
 30
0.0
 10
-9.14819567385416
 20
-21.04921177353259
 30
0.0
 10
-9.105551456536348
 20
-21.04728720269866
 30
0.0
 10
-9.038820505684454
 20
-21.03461288020599
 30
0.0
 10
-8.971156260368204
 20
-21.01753828235069
 30
0.0
 10
-8.90731041612759
 20
-20.99799191654634
 30
0.0
 10
-8.847808944503782
 20
-20.97789144988164
 30
0.0
 10
-8.79269380883118
 20
-20.9580885234911
 30
0.0
 10
-8.737377378685556
 20
-20.93737534987632
 30
0.0
 10
-8.681452819921672
 20
-20.91589005353866
 30
0.0
 10
-8.644009440273784
 20
-20.90132252700015
 30
0.0
 10
-8.624999999997973
 20
-20.89392681303671
 30
0.0
  0
SPLINE
  5
97
330
1F
100
AcDbEntity
  8
0
  6
Continuous
 62
     7
370
    25
100
AcDbSpline
210
0.0
220
0.0
230
1.0
 70
     8
 71
     3
 72
    15
 73
    11
 74
     0
 42
0.00000001
 43
0.00000001
 40
0.0
 40
0.0
 40
0.0
 40
0.0
 40
0.1275716541548403
 40
0.2533773592696146
 40
0.3792343912150907
 40
0.5039392018809901
 40
0.6276776945580311
 40
0.7512814096094542
 40
0.8754145977272864
 40
0.9999999999999999
 40
0.9999999999999999
 40
0.9999999999999999
 40
0.9999999999999999
 10
9.15256071925622
 20
-21.08142681303669
 30
0.0
 10
9.131886949074126
 20
-21.08027854612216
 30
0.0
 10
9.090825591599458
 20
-21.07799790752364
 30
0.0
 10
9.026046480142844
 20
-21.06280087140192
 30
0.0
 10
8.960449246684307
 20
-21.04229776521338
 30
0.0
 10
8.894080529937598
 20
-21.01713673250707
 30
0.0
 10
8.82740654043438
 20
-20.98894157021256
 30
0.0
 10
8.7603467746958
 20
-20.95852752379866
 30
0.0
 10
8.692834946754168
 20
-20.92661897427923
 30
0.0
 10
8.647639040289194
 20
-20.90483740102834
 30
0.0
 10
8.625000000002029
 20
-20.89392681303677
 30
0.0
  0
SPLINE
  5
99
330
1F
100
AcDbEntity
  8
0
  6
Continuous
 62
     7
370
    25
100
AcDbSpline
210
0.0
220
0.0
230
1.0
 70
     8
 71
     3
 72
    15
 73
    11
 74
     0
 42
0.00000001
 43
0.00000001
 40
0.0
 40
0.0
 40
0.0
 40
0.0
 40
0.1245854022727463
 40
0.2487185903905721
 40
0.372322305441991
 40
0.4960607981190284
 40
0.6207656087849224
 40
0.746622640730392
 40
0.8724283458451589
 40
1.0
 40
1.0
 40
1.0
 40
1.0
 10
-8.624999999997973
 20
-20.89392681303671
 30
0.0
 10
-8.647639040285137
 20
-20.9048374010283
 30
0.0
 10
-8.692834946750096
 20
-20.92661897427925
 30
0.0
 10
-8.760346774691744
 20
-20.95852752379866
 30
0.0
 10
-8.82740654043032
 20
-20.98894157021256
 30
0.0
 10
-8.89408052993354
 20
-21.01713673250708
 30
0.0
 10
-8.960449246680255
 20
-21.04229776521338
 30
0.0
 10
-9.026046480138787
 20
-21.06280087140192
 30
0.0
 10
-9.090825591595403
 20
-21.07799790752365
 30
0.0
 10
-9.131886949070072
 20
-21.08027854612217
 30
0.0
 10
-9.15256071925217
 20
-21.08142681303671
 30
0.0
  0
SPLINE
  5
9F
330
1F
100
AcDbEntity
  8
0
  6
Continuous
 62
     7
370
    25
100
AcDbSpline
210
0.0
220
0.0
230
1.0
 70
     8
 71
     3
 72
    15
 73
    11
 74
     0
 42
0.00000001
 43
0.00000001
 40
0.0
 40
0.0
 40
0.0
 40
0.0
 40
0.1253981707174749
 40
0.2502923579118134
 40
0.3745507810061957
 40
0.4987731365772695
 40
0.6236964781712637
 40
0.7493563334568386
 40
0.874319492220886
 40
1.0
 40
1.0
 40
1.0
 40
1.0
 10
8.625000000002029
 20
-20.89392681303677
 30
0.0
 10
8.648367835135353
 20
-20.90301839415998
 30
0.0
 10
8.695009588530562
 20
-20.92116501674192
 30
0.0
 10
8.764684265267922
 20
-20.94774993786917
 30
0.0
 10
8.833888426629066
 20
-20.97308896349624
 30
0.0
 10
8.902687911420484
 20
-20.99657736575421
 30
0.0
 10
8.971155688648071
 20
-21.01753793806146
 30
0.0
 10
9.038820657551721
 20
-21.03461297165706
 30
0.0
 10
9.1055514184088
 20
-21.04728717973588
 30
0.0
 10
9.148195661123452
 20
-21.04921176586376
 30
0.0
 10
9.1695788069741
 20
-21.05017681303671
 30
0.0
  0
SPLINE
  5
11F
330
1F
100
AcDbEntity
  8
0
  6
Continuous
 62
     7
370
    25
100
AcDbSpline
210
0.0
220
0.0
230
1.0
 70
     8
 71
     3
 72
    12
 73
     8
 74
     0
 42
0.00000001
 43
0.00000001
 40
0.0
 40
0.0
 40
0.0
 40
0.0
 40
0.218732577863188
 40
0.4380180563816405
 40
0.6466237912414026
 40
0.8512505431359005
 40
1.0
 40
1.0
 40
1.0
 40
1.0
 10
9.02749545416971
 20
19.74999999999995
 30
0.0
 10
9.024330547590015
 20
19.75028663453776
 30
0.0
 10
9.01799273434697
 20
19.75086062815302
 30
0.0
 10
9.009639748232038
 20
19.75560253007894
 30
0.0
 10
9.003587997102644
 20
19.76257749772379
 30
0.0
 10
9.000450482645821
 20
19.77025456206601
 30
0.0
 10
9.000133450754408
 20
19.77535041590263
 30
0.0
 10
8.999999999999979
 20
19.77749545416969
 30
0.0
  0
SPLINE
  5
120
330
1F
100
AcDbEntity
  8
0
  6
Continuous
 62
     7
370
    25
100
AcDbSpline
210
0.0
220
0.0
230
1.0
 70
     8
 71
     3
 72
    12
 73
     8
 74
     0
 42
0.00000001
 43
0.00000001
 40
0.0
 40
0.0
 40
0.0
 40
0.0
 40
0.2187325778631035
 40
0.4380180563814815
 40
0.6466237912413673
 40
0.8512505431358466
 40
1.0
 40
1.0
 40
1.0
 40
1.0
 10
8.999999999999973
 20
20.47250454583023
 30
0.0
 10
9.000286634537774
 20
20.47566945240992
 30
0.0
 10
9.000860628153022
 20
20.48200726565297
 30
0.0
 10
9.005602530078956
 20
20.49036025176789
 30
0.0
 10
9.0125774977238
 20
20.4964120028973
 30
0.0
 10
9.020254562066027
 20
20.49954951735412
 30
0.0
 10
9.025350415902649
 20
20.49986654924553
 30
0.0
 10
9.02749545416971
 20
20.49999999999996
 30
0.0
  0
SPLINE
  5
121
330
1F
100
AcDbEntity
  8
0
  6
Continuous
 62
     7
370
    25
100
AcDbSpline
210
0.0
220
0.0
230
1.0
 70
     8
 71
     3
 72
    12
 73
     8
 74
     0
 42
0.00000001
 43
0.00000001
 40
0.0
 40
0.0
 40
0.0
 40
0.0
 40
0.2187325778629995
 40
0.438018056382014
 40
0.6466237912412283
 40
0.8512505431357231
 40
1.0
 40
1.0
 40
1.0
 40
1.0
 10
11.24999999999998
 20
19.77749545416969
 30
0.0
 10
11.24971336546217
 20
19.77433054758999
 30
0.0
 10
11.24913937184692
 20
19.76799273434695
 30
0.0
 10
11.24439746992102
 20
19.759639748232
 30
0.0
 10
11.23742250227613
 20
19.75358799710266
 30
0.0
 10
11.22974543793392
 20
19.75045048264579
 30
0.0
 10
11.2246495840973
 20
19.75013345075439
 30
0.0
 10
11.22250454583024
 20
19.74999999999996
 30
0.0
  0
SPLINE
  5
123
330
1F
100
AcDbEntity
  8
0
  6
Continuous
 62
     7
370
    25
100
AcDbSpline
210
0.0
220
0.0
230
1.0
 70
     8
 71
     3
 72
    12
 73
     8
 74
     0
 42
0.00000001
 43
0.00000001
 40
0.0
 40
0.0
 40
0.0
 40
0.0
 40
0.2187325778629374
 40
0.438018056381315
 40
0.6466237912410159
 40
0.8512505431352516
 40
1.0
 40
1.0
 40
1.0
 40
1.0
 10
11.22250454583024
 20
20.49999999999995
 30
0.0
 10
11.22566945240994
 20
20.49971336546215
 30
0.0
 10
11.23200726565298
 20
20.49913937184689
 30
0.0
 10
11.24036025176792
 20
20.49439746992099
 30
0.0
 10
11.24641200289731
 20
20.48742250227614
 30
0.0
 10
11.24954951735412
 20
20.4797454379339
 30
0.0
 10
11.24986654924555
 20
20.47464958409727
 30
0.0
 10
11.24999999999998
 20
20.4725045458302
 30
0.0
  0
SPLINE
  5
125
330
1F
100
AcDbEntity
  8
0
  6
Continuous
 62
     7
370
    25
100
AcDbSpline
210
0.0
220
0.0
230
1.0
 70
     8
 71
     3
 72
    10
 73
     6
 74
     0
 42
0.00000001
 43
0.00000001
 40
0.0
 40
0.0
 40
0.0
 40
0.0
 40
0.2368843287356502
 40
0.5072638054700701
 40
1.0
 40
1.0
 40
1.0
 40
1.0
 10
9.50447839122201
 20
20.18994452917472
 30
0.0
 10
9.497023318319027
 20
20.19155607207282
 30
0.0
 10
9.481059034522763
 20
20.19500702802052
 30
0.0
 10
9.448517373158346
 20
20.1964059043024
 30
0.0
 10
9.42481119527782
 20
20.18912641260404
 30
0.0
 10
9.409504352140468
 20
20.18442611725876
 30
0.0
  0
SPLINE
  5
126
330
1F
100
AcDbEntity
  8
0
  6
Continuous
 62
     7
370
    25
100
AcDbSpline
210
0.0
220
0.0
230
1.0
 70
     8
 71
     3
 72
     9
 73
     5
 74
     0
 42
0.00000001
 43
0.00000001
 40
0.0
 40
0.0
 40
0.0
 40
0.0
 40
0.5673312345536019
 40
1.0
 40
1.0
 40
1.0
 40
1.0
 10
9.348371326648701
 20
20.11075603730055
 30
0.0
 10
9.34425678962672
 20
20.09029372671835
 30
0.0
 10
9.337004347364804
 20
20.05422606582478
 30
0.0
 10
9.345102390242246
 20
20.01848653898922
 30
0.0
 10
9.34860616045656
 20
20.00302316203563
 30
0.0
  0
SPLINE
  5
127
330
1F
100
AcDbEntity
  8
0
  6
Continuous
 62
     7
370
    25
100
AcDbSpline
210
0.0
220
0.0
230
1.0
 70
     8
 71
     3
 72
     9
 73
     5
 74
     0
 42
0.00000001
 43
0.00000001
 40
0.0
 40
0.0
 40
0.0
 40
0.0
 40
0.5479164418292792
 40
1.0
 40
1.0
 40
1.0
 40
1.0
 10
9.403490199224311
 20
19.99099486092503
 30
0.0
 10
9.400353851384134
 20
19.99622799527293
 30
0.0
 10
9.394629716094993
 20
20.00577896682333
 30
0.0
 10
9.391585659825374
 20
20.01647705165464
 30
0.0
 10
9.390209492035735
 20
20.02131347991079
 30
0.0
  0
SPLINE
  5
128
330
1F
100
AcDbEntity
  8
0
  6
Continuous
 62
     7
370
    25
100
AcDbSpline
210
0.0
220
0.0
230
1.0
 70
     8
 71
     3
 72
     9
 73
     5
 74
     0
 42
0.00000001
 43
0.00000001
 40
0.0
 40
0.0
 40
0.0
 40
0.0
 40
0.548553793522276
 40
1.0
 40
1.0
 40
1.0
 40
1.0
 10
9.371175536957136
 20
20.1548511031216
 30
0.0
 10
9.365837770002472
 20
20.14737809487342
 30
0.0
 10
9.356107152845691
 20
20.13375498564249
 30
0.0
 10
9.350777416089024
 20
20.11790944604255
 30
0.0
 10
9.348371326648701
 20
20.11075603730055
 30
0.0
  0
SPLINE
  5
129
330
1F
100
AcDbEntity
  8
0
  6
Continuous
 62
     7
370
    25
100
AcDbSpline
210
0.0
220
0.0
230
1.0
 70
     8
 71
     3
 72
     9
 73
     5
 74
     0
 42
0.00000001
 43
0.00000001
 40
0.0
 40
0.0
 40
0.0
 40
0.0
 40
0.5344206580891482
 40
0.9999999999999999
 40
0.9999999999999999
 40
0.9999999999999999
 40
0.9999999999999999
 10
9.509735894057394
 20
20.14408826647304
 30
0.0
 10
9.515188389446264
 20
20.13821752641953
 30
0.0
 10
9.525391017855817
 20
20.12723228480387
 30
0.0
 10
9.529067303938668
 20
20.11274109325531
 30
0.0
 10
9.530778906793795
 20
20.10599429383063
 30
0.0
  0
SPLINE
  5
12A
330
1F
100
AcDbEntity
  8
0
  6
Continuous
 62
     7
370
    25
100
AcDbSpline
210
0.0
220
0.0
230
1.0
 70
     8
 71
     3
 72
     9
 73
     5
 74
     0
 42
0.00000001
 43
0.00000001
 40
0.0
 40
0.0
 40
0.0
 40
0.0
 40
0.5280901206098644
 40
1.0
 40
1.0
 40
1.0
 40
1.0
 10
9.540550269999445
 20
19.95064394654191
 30
0.0
 10
9.5502431164914
 20
19.96210444653692
 30
0.0
 10
9.56859764749599
 20
19.98380623482596
 30
0.0
 10
9.57388099834573
 20
20.01166361220341
 30
0.0
 10
9.576374263808006
 20
20.02480978380174
 30
0.0
  0
SPLINE
  5
12B
330
1F
100
AcDbEntity
  8
0
  6
Continuous
 62
     7
370
    25
100
AcDbSpline
210
0.0
220
0.0
230
1.0
 70
     8
 71
     3
 72
     9
 73
     5
 74
     0
 42
0.00000001
 43
0.00000001
 40
0.0
 40
0.0
 40
0.0
 40
0.0
 40
0.5492292899069656
 40
0.9999999999999999
 40
0.9999999999999999
 40
0.9999999999999999
 40
0.9999999999999999
 10
9.538541199900106
 20
20.17365021701275
 30
0.0
 10
9.532702975215996
 20
20.17748517362846
 30
0.0
 10
9.522073125731648
 20
20.18446760644147
 30
0.0
 10
9.509945272317436
 20
20.18824278793304
 30
0.0
 10
9.50447839122201
 20
20.18994452917472
 30
0.0
  0
SPLINE
  5
12C
330
1F
100
AcDbEntity
  8
0
  6
Continuous
 62
     7
370
    25
100
AcDbSpline
210
0.0
220
0.0
230
1.0
 70
     8
 71
     3
 72
    12
 73
     8
 74
     0
 42
0.00000001
 43
0.00000001
 40
0.0
 40
0.0
 40
0.0
 40
0.0
 40
0.1369878714274554
 40
0.2829060206898034
 40
0.4728046085928418
 40
0.7503231400869281
 40
1.0
 40
1.0
 40
1.0
 40
1.0
 10
9.409752224667795
 20
19.93410176194993
 30
0.0
 10
9.415686639869648
 20
19.93197683585412
 30
0.0
 10
9.42794233646806
 20
19.92758845913316
 30
0.0
 10
9.449589321056434
 20
19.92452535518483
 30
0.0
 10
9.47768289425427
 20
19.9243378769588
 30
0.0
 10
9.511159745230458
 20
19.92971390467645
 30
0.0
 10
9.531104529180352
 20
19.94391729731234
 30
0.0
 10
9.540550269999445
 20
19.9506439465419
 30
0.0
  0
SPLINE
  5
12D
330
1F
100
AcDbEntity
  8
0
  6
Continuous
 62
     7
370
    25
100
AcDbSpline
210
0.0
220
0.0
230
1.0
 70
     8
 71
     3
 72
     9
 73
     5
 74
     0
 42
0.00000001
 43
0.00000001
 40
0.0
 40
0.0
 40
0.0
 40
0.0
 40
0.5655847796392739
 40
1.0
 40
1.0
 40
1.0
 40
1.0
 10
9.409504352140468
 20
20.18442611725876
 30
0.0
 10
9.40133977310711
 20
20.18002944769642
 30
0.0
 10
9.386904131754516
 20
20.1722557774694
 30
0.0
 10
9.375938970081577
 20
20.16012213994189
 30
0.0
 10
9.371175536957136
 20
20.1548511031216
 30
0.0
  0
SPLINE
  5
12E
330
1F
100
AcDbEntity
  8
0
  6
Continuous
 62
     7
370
    25
100
AcDbSpline
210
0.0
220
0.0
230
1.0
 70
     8
 71
     3
 72
    11
 73
     7
 74
     0
 42
0.00000001
 43
0.00000001
 40
0.0
 40
0.0
 40
0.0
 40
0.0
 40
0.2439292834303203
 40
0.5378969325642923
 40
0.781750532679484
 40
1.0
 40
1.0
 40
1.0
 40
1.0
 10
9.428042555943632
 20
20.1490978699315
 30
0.0
 10
9.434542678040565
 20
20.15176635877145
 30
0.0
 10
9.448876322972666
 20
20.15765073616724
 30
0.0
 10
9.471533685698482
 20
20.15816614038298
 30
0.0
 10
9.49336457049386
 20
20.15500693443402
 30
0.0
 10
9.504484156958547
 20
20.14759085277146
 30
0.0
 10
9.509735894057394
 20
20.14408826647304
 30
0.0
  0
SPLINE
  5
12F
330
1F
100
AcDbEntity
  8
0
  6
Continuous
 62
     7
370
    25
100
AcDbSpline
210
0.0
220
0.0
230
1.0
 70
     8
 71
     3
 72
     9
 73
     5
 74
     0
 42
0.00000001
 43
0.00000001
 40
0.0
 40
0.0
 40
0.0
 40
0.0
 40
0.5446690043838672
 40
0.9999999999999999
 40
0.9999999999999999
 40
0.9999999999999999
 40
0.9999999999999999
 10
9.390209492035735
 20
20.02131347991079
 30
0.0
 10
9.388001222768633
 20
20.03456572154586
 30
0.0
 10
9.383946890230286
 20
20.05889653811224
 30
0.0
 10
9.388079784600182
 20
20.08317305380432
 30
0.0
 10
9.389961619508403
 20
20.09422690386448
 30
0.0
  0
SPLINE
  5
131
330
1F
100
AcDbEntity
  8
0
  6
Continuous
 62
     7
370
    25
100
AcDbSpline
210
0.0
220
0.0
230
1.0
 70
     8
 71
     3
 72
     9
 73
     5
 74
     0
 42
0.00000001
 43
0.00000001
 40
0.0
 40
0.0
 40
0.0
 40
0.0
 40
0.5824804896282871
 40
0.9999999999999999
 40
0.9999999999999999
 40
0.9999999999999999
 40
0.9999999999999999
 10
9.574873989924438
 20
20.10599429383063
 30
0.0
 10
9.573671180834962
 20
20.11409325879441
 30
0.0
 10
9.571606203362077
 20
20.12799752701967
 30
0.0
 10
9.565426036694646
 20
20.14058209647783
 30
0.0
 10
9.562845696533643
 20
20.14583639975623
 30
0.0
  0
SPLINE
  5
132
330
1F
100
AcDbEntity
  8
0
  6
Continuous
 62
     7
370
    25
100
AcDbSpline
210
0.0
220
0.0
230
1.0
 70
     8
 71
     3
 72
     9
 73
     5
 74
     0
 42
0.00000001
 43
0.00000001
 40
0.0
 40
0.0
 40
0.0
 40
0.0
 40
0.5712564446452933
 40
1.0
 40
1.0
 40
1.0
 40
1.0
 10
9.34860616045656
 20
20.00302316203563
 30
0.0
 10
9.351828211421669
 20
19.99438639495139
 30
0.0
 10
9.357468499588762
 20
19.97926749841168
 30
0.0
 10
9.367409249536383
 20
19.96660215760506
 30
0.0
 10
9.37167128201182
 20
19.96117197435785
 30
0.0
  0
SPLINE
  5
133
330
1F
100
AcDbEntity
  8
0
  6
Continuous
 62
     7
370
    25
100
AcDbSpline
210
0.0
220
0.0
230
1.0
 70
     8
 71
     3
 72
     9
 73
     5
 74
     0
 42
0.00000001
 43
0.00000001
 40
0.0
 40
0.0
 40
0.0
 40
0.0
 40
0.5649072755393821
 40
0.9999999999999999
 40
0.9999999999999999
 40
0.9999999999999999
 40
0.9999999999999999
 10
9.56284569653364
 20
20.14583639975623
 30
0.0
 10
9.55905034294262
 20
20.15177552625843
 30
0.0
 10
9.552331800351011
 20
20.16228897998679
 30
0.0
 10
9.54272224675503
 20
20.17020570678243
 30
0.0
 10
9.538541199900106
 20
20.17365021701275
 30
0.0
  0
SPLINE
  5
134
330
1F
100
AcDbEntity
  8
0
  6
Continuous
 62
     7
370
    25
100
AcDbSpline
210
0.0
220
0.0
230
1.0
 70
     8
 71
     3
 72
     9
 73
     5
 74
     0
 42
0.00000001
 43
0.00000001
 40
0.0
 40
0.0
 40
0.0
 40
0.0
 40
0.5523480590791516
 40
0.9999999999999999
 40
0.9999999999999999
 40
0.9999999999999999
 40
0.9999999999999999
 10
9.403242326696956
 20
20.1265415534465
 30
0.0
 10
9.40707889414065
 20
20.13151773049184
 30
0.0
 10
9.414024817785407
 20
20.14052686334485
 30
0.0
 10
9.423707903727534
 20
20.14644748994325
 30
0.0
 10
9.428042555943634
 20
20.14909786993151
 30
0.0
  0
SPLINE
  5
136
330
1F
100
AcDbEntity
  8
0
  6
Continuous
 62
     7
370
    25
100
AcDbSpline
210
0.0
220
0.0
230
1.0
 70
     8
 71
     3
 72
     9
 73
     5
 74
     0
 42
0.00000001
 43
0.00000001
 40
0.0
 40
0.0
 40
0.0
 40
0.0
 40
0.551448941930334
 40
1.0
 40
1.0
 40
1.0
 40
1.0
 10
9.37167128201182
 20
19.96117197435785
 30
0.0
 10
9.377847591950209
 20
19.95500760132672
 30
0.0
 10
9.389047740266333
 20
19.9438290994521
 30
0.0
 10
9.40334097783371
 20
19.93711388051109
 30
0.0
 10
9.409752224667795
 20
19.93410176194993
 30
0.0
  0
SPLINE
  5
137
330
1F
100
AcDbEntity
  8
0
  6
Continuous
 62
     7
370
    25
100
AcDbSpline
210
0.0
220
0.0
230
1.0
 70
     8
 71
     3
 72
    11
 73
     7
 74
     0
 42
0.00000001
 43
0.00000001
 40
0.0
 40
0.0
 40
0.0
 40
0.0
 40
0.3117288458059542
 40
0.6498471635423336
 40
0.8320255878107287
 40
1.0
 40
1.0
 40
1.0
 40
1.0
 10
9.510988295413624
 20
19.97820989136839
 30
0.0
 10
9.503186124604282
 20
19.97300388407547
 30
0.0
 10
9.486921288551603
 20
19.96215115383187
 30
0.0
 10
9.461430099221984
 20
19.960960294214
 30
0.0
 10
9.4410831221268
 20
19.96329134453471
 30
0.0
 10
9.43159137652214
 20
19.96761621648692
 30
0.0
 10
9.427038020894004
 20
19.96969093286312
 30
0.0
  0
SPLINE
  5
138
330
1F
100
AcDbEntity
  8
0
  6
Continuous
 62
     7
370
    25
100
AcDbSpline
210
0.0
220
0.0
230
1.0
 70
     8
 71
     3
 72
     9
 73
     5
 74
     0
 42
0.00000001
 43
0.00000001
 40
0.0
 40
0.0
 40
0.0
 40
0.0
 40
0.5880129924176695
 40
1.0
 40
1.0
 40
1.0
 40
1.0
 10
9.532787964451567
 20
20.02480978380171
 30
0.0
 10
9.530802940209295
 20
20.01451594972821
 30
0.0
 10
9.527427123232682
 20
19.99700981600967
 30
0.0
 10
9.51578478677294
 20
19.98369529927522
 30
0.0
 10
9.510988295413624
 20
19.97820989136839
 30
0.0
  0
SPLINE
  5
139
330
1F
100
AcDbEntity
  8
0
  6
Continuous
 62
     7
370
    25
100
AcDbSpline
210
0.0
220
0.0
230
1.0
 70
     8
 71
     3
 72
     9
 73
     5
 74
     0
 42
0.00000001
 43
0.00000001
 40
0.0
 40
0.0
 40
0.0
 40
0.0
 40
0.5727162135258044
 40
1.0
 40
1.0
 40
1.0
 40
1.0
 10
9.389961619508401
 20
20.09422690386448
 30
0.0
 10
9.391675377077451
 20
20.10074679023071
 30
0.0
 10
9.394667709979121
 20
20.11213093863137
 30
0.0
 10
9.400675356670755
 20
20.12222746950469
 30
0.0
 10
9.403242326696956
 20
20.1265415534465
 30
0.0
  0
SPLINE
  5
13A
330
1F
100
AcDbEntity
  8
0
  6
Continuous
 62
     7
370
    25
100
AcDbSpline
210
0.0
220
0.0
230
1.0
 70
     8
 71
     3
 72
     9
 73
     5
 74
     0
 42
0.00000001
 43
0.00000001
 40
0.0
 40
0.0
 40
0.0
 40
0.0
 40
0.5633473573954828
 40
1.0
 40
1.0
 40
1.0
 40
1.0
 10
9.427038020894006
 20
19.96969093286312
 30
0.0
 10
9.421913966297897
 20
19.97293865136848
 30
0.0
 10
9.412818237829768
 20
19.97870368862788
 30
0.0
 10
9.406325340153023
 20
19.98725911248793
 30
0.0
 10
9.403490199224311
 20
19.99099486092503
 30
0.0
  0
SPLINE
  5
13B
330
1F
100
AcDbEntity
  8
0
  6
Continuous
 62
     7
370
    25
100
AcDbSpline
210
0.0
220
0.0
230
1.0
 70
     8
 71
     3
 72
     9
 73
     5
 74
     0
 42
0.00000001
 43
0.00000001
 40
0.0
 40
0.0
 40
0.0
 40
0.0
 40
0.5633473573957691
 40
0.9999999999999999
 40
0.9999999999999999
 40
0.9999999999999999
 40
0.9999999999999999
 10
9.42703802089401
 20
19.96969093286312
 30
0.0
 10
9.4219139662979
 20
19.97293865136848
 30
0.0
 10
9.412818237829768
 20
19.97870368862786
 30
0.0
 10
9.406325340153023
 20
19.98725911248793
 30
0.0
 10
9.403490199224317
 20
19.99099486092502
 30
0.0
  0
SPLINE
  5
13C
330
1F
100
AcDbEntity
  8
0
  6
Continuous
 62
     7
370
    25
100
AcDbSpline
210
0.0
220
0.0
230
1.0
 70
     8
 71
     3
 72
     9
 73
     5
 74
     0
 42
0.00000001
 43
0.00000001
 40
0.0
 40
0.0
 40
0.0
 40
0.0
 40
0.5727162135258899
 40
0.9999999999999999
 40
0.9999999999999999
 40
0.9999999999999999
 40
0.9999999999999999
 10
9.389961619508407
 20
20.09422690386447
 30
0.0
 10
9.391675377077455
 20
20.10074679023072
 30
0.0
 10
9.394667709979108
 20
20.11213093863137
 30
0.0
 10
9.400675356670753
 20
20.1222274695047
 30
0.0
 10
9.403242326696958
 20
20.12654155344651
 30
0.0
  0
SPLINE
  5
13D
330
1F
100
AcDbEntity
  8
0
  6
Continuous
 62
     7
370
    25
100
AcDbSpline
210
0.0
220
0.0
230
1.0
 70
     8
 71
     3
 72
     9
 73
     5
 74
     0
 42
0.00000001
 43
0.00000001
 40
0.0
 40
0.0
 40
0.0
 40
0.0
 40
0.5880129924178532
 40
1.0
 40
1.0
 40
1.0
 40
1.0
 10
9.532787964451577
 20
20.02480978380173
 30
0.0
 10
9.5308029402093
 20
20.01451594972821
 30
0.0
 10
9.527427123232682
 20
19.99700981600965
 30
0.0
 10
9.515784786772944
 20
19.98369529927521
 30
0.0
 10
9.510988295413629
 20
19.97820989136838
 30
0.0
  0
SPLINE
  5
13E
330
1F
100
AcDbEntity
  8
0
  6
Continuous
 62
     7
370
    25
100
AcDbSpline
210
0.0
220
0.0
230
1.0
 70
     8
 71
     3
 72
    11
 73
     7
 74
     0
 42
0.00000001
 43
0.00000001
 40
0.0
 40
0.0
 40
0.0
 40
0.0
 40
0.3117288458059635
 40
0.6498471635423525
 40
0.8320255878107555
 40
1.0
 40
1.0
 40
1.0
 40
1.0
 10
9.510988295413629
 20
19.97820989136838
 30
0.0
 10
9.503186124604284
 20
19.97300388407547
 30
0.0
 10
9.486921288551605
 20
19.96215115383188
 30
0.0
 10
9.461430099221989
 20
19.96096029421403
 30
0.0
 10
9.441083122126793
 20
19.9632913445347
 30
0.0
 10
9.431591376522142
 20
19.96761621648692
 30
0.0
 10
9.42703802089401
 20
19.96969093286312
 30
0.0
  0
SPLINE
  5
13F
330
1F
100
AcDbEntity
  8
0
  6
Continuous
 62
     7
370
    25
100
AcDbSpline
210
0.0
220
0.0
230
1.0
 70
     8
 71
     3
 72
     9
 73
     5
 74
     0
 42
0.00000001
 43
0.00000001
 40
0.0
 40
0.0
 40
0.0
 40
0.0
 40
0.5514489419302532
 40
1.0
 40
1.0
 40
1.0
 40
1.0
 10
9.371671282011821
 20
19.96117197435785
 30
0.0
 10
9.377847591950207
 20
19.95500760132672
 30
0.0
 10
9.38904774026633
 20
19.9438290994521
 30
0.0
 10
9.403340977833707
 20
19.93711388051109
 30
0.0
 10
9.409752224667795
 20
19.93410176194993
 30
0.0
  0
SPLINE
  5
141
330
1F
100
AcDbEntity
  8
0
  6
Continuous
 62
     7
370
    25
100
AcDbSpline
210
0.0
220
0.0
230
1.0
 70
     8
 71
     3
 72
     9
 73
     5
 74
     0
 42
0.00000001
 43
0.00000001
 40
0.0
 40
0.0
 40
0.0
 40
0.0
 40
0.5523480590793226
 40
1.0
 40
1.0
 40
1.0
 40
1.0
 10
9.403242326696956
 20
20.1265415534465
 30
0.0
 10
9.40707889414065
 20
20.13151773049185
 30
0.0
 10
9.414024817785403
 20
20.14052686334485
 30
0.0
 10
9.423707903727536
 20
20.14644748994326
 30
0.0
 10
9.428042555943628
 20
20.1490978699315
 30
0.0
  0
SPLINE
  5
142
330
1F
100
AcDbEntity
  8
0
  6
Continuous
 62
     7
370
    25
100
AcDbSpline
210
0.0
220
0.0
230
1.0
 70
     8
 71
     3
 72
     9
 73
     5
 74
     0
 42
0.00000001
 43
0.00000001
 40
0.0
 40
0.0
 40
0.0
 40
0.0
 40
0.5649072755394382
 40
1.0
 40
1.0
 40
1.0
 40
1.0
 10
9.562845696533646
 20
20.14583639975623
 30
0.0
 10
9.559050342942623
 20
20.15177552625843
 30
0.0
 10
9.55233180035101
 20
20.16228897998678
 30
0.0
 10
9.542722246755034
 20
20.17020570678242
 30
0.0
 10
9.53854119990011
 20
20.17365021701275
 30
0.0
  0
SPLINE
  5
143
330
1F
100
AcDbEntity
  8
0
  6
Continuous
 62
     7
370
    25
100
AcDbSpline
210
0.0
220
0.0
230
1.0
 70
     8
 71
     3
 72
     9
 73
     5
 74
     0
 42
0.00000001
 43
0.00000001
 40
0.0
 40
0.0
 40
0.0
 40
0.0
 40
0.5712564446452381
 40
1.0
 40
1.0
 40
1.0
 40
1.0
 10
9.348606160456566
 20
20.00302316203563
 30
0.0
 10
9.351828211421678
 20
19.9943863949514
 30
0.0
 10
9.35746849958877
 20
19.97926749841169
 30
0.0
 10
9.367409249536388
 20
19.96660215760507
 30
0.0
 10
9.371671282011821
 20
19.96117197435785
 30
0.0
  0
SPLINE
  5
144
330
1F
100
AcDbEntity
  8
0
  6
Continuous
 62
     7
370
    25
100
AcDbSpline
210
0.0
220
0.0
230
1.0
 70
     8
 71
     3
 72
     9
 73
     5
 74
     0
 42
0.00000001
 43
0.00000001
 40
0.0
 40
0.0
 40
0.0
 40
0.0
 40
0.5824804896283009
 40
1.0
 40
1.0
 40
1.0
 40
1.0
 10
9.574873989924432
 20
20.10599429383063
 30
0.0
 10
9.573671180834955
 20
20.11409325879441
 30
0.0
 10
9.571606203362073
 20
20.12799752701969
 30
0.0
 10
9.565426036694646
 20
20.14058209647783
 30
0.0
 10
9.562845696533646
 20
20.14583639975623
 30
0.0
  0
SPLINE
  5
146
330
1F
100
AcDbEntity
  8
0
  6
Continuous
 62
     7
370
    25
100
AcDbSpline
210
0.0
220
0.0
230
1.0
 70
     8
 71
     3
 72
     9
 73
     5
 74
     0
 42
0.00000001
 43
0.00000001
 40
0.0
 40
0.0
 40
0.0
 40
0.0
 40
0.5446690043839176
 40
1.0
 40
1.0
 40
1.0
 40
1.0
 10
9.390209492035728
 20
20.02131347991079
 30
0.0
 10
9.38800122276863
 20
20.03456572154585
 30
0.0
 10
9.383946890230288
 20
20.05889653811224
 30
0.0
 10
9.388079784600185
 20
20.08317305380432
 30
0.0
 10
9.389961619508407
 20
20.09422690386447
 30
0.0
  0
SPLINE
  5
147
330
1F
100
AcDbEntity
  8
0
  6
Continuous
 62
     7
370
    25
100
AcDbSpline
210
0.0
220
0.0
230
1.0
 70
     8
 71
     3
 72
    11
 73
     7
 74
     0
 42
0.00000001
 43
0.00000001
 40
0.0
 40
0.0
 40
0.0
 40
0.0
 40
0.2439292834303902
 40
0.5378969325643612
 40
0.7817505326796154
 40
1.0
 40
1.0
 40
1.0
 40
1.0
 10
9.428042555943628
 20
20.1490978699315
 30
0.0
 10
9.434542678040563
 20
20.15176635877145
 30
0.0
 10
9.448876322972664
 20
20.15765073616726
 30
0.0
 10
9.47153368569848
 20
20.15816614038298
 30
0.0
 10
9.493364570493862
 20
20.15500693443403
 30
0.0
 10
9.504484156958547
 20
20.14759085277147
 30
0.0
 10
9.509735894057389
 20
20.14408826647305
 30
0.0
  0
SPLINE
  5
148
330
1F
100
AcDbEntity
  8
0
  6
Continuous
 62
     7
370
    25
100
AcDbSpline
210
0.0
220
0.0
230
1.0
 70
     8
 71
     3
 72
     9
 73
     5
 74
     0
 42
0.00000001
 43
0.00000001
 40
0.0
 40
0.0
 40
0.0
 40
0.0
 40
0.5655847796392073
 40
1.0
 40
1.0
 40
1.0
 40
1.0
 10
9.409504352140464
 20
20.18442611725874
 30
0.0
 10
9.401339773107109
 20
20.18002944769641
 30
0.0
 10
9.386904131754516
 20
20.1722557774694
 30
0.0
 10
9.375938970081583
 20
20.16012213994189
 30
0.0
 10
9.371175536957146
 20
20.15485110312161
 30
0.0
  0
SPLINE
  5
149
330
1F
100
AcDbEntity
  8
0
  6
Continuous
 62
     7
370
    25
100
AcDbSpline
210
0.0
220
0.0
230
1.0
 70
     8
 71
     3
 72
    12
 73
     8
 74
     0
 42
0.00000001
 43
0.00000001
 40
0.0
 40
0.0
 40
0.0
 40
0.0
 40
0.1369878714274391
 40
0.2829060206897677
 40
0.4728046085927988
 40
0.7503231400869083
 40
1.0
 40
1.0
 40
1.0
 40
1.0
 10
9.409752224667795
 20
19.93410176194993
 30
0.0
 10
9.415686639869648
 20
19.93197683585412
 30
0.0
 10
9.427942336468057
 20
19.92758845913315
 30
0.0
 10
9.449589321056427
 20
19.92452535518483
 30
0.0
 10
9.477682894254272
 20
19.92433787695879
 30
0.0
 10
9.51115974523046
 20
19.92971390467644
 30
0.0
 10
9.531104529180352
 20
19.94391729731234
 30
0.0
 10
9.540550269999448
 20
19.95064394654191
 30
0.0
  0
SPLINE
  5
14A
330
1F
100
AcDbEntity
  8
0
  6
Continuous
 62
     7
370
    25
100
AcDbSpline
210
0.0
220
0.0
230
1.0
 70
     8
 71
     3
 72
     9
 73
     5
 74
     0
 42
0.00000001
 43
0.00000001
 40
0.0
 40
0.0
 40
0.0
 40
0.0
 40
0.5492292899071005
 40
0.9999999999999999
 40
0.9999999999999999
 40
0.9999999999999999
 40
0.9999999999999999
 10
9.53854119990011
 20
20.17365021701275
 30
0.0
 10
9.532702975216
 20
20.17748517362846
 30
0.0
 10
9.522073125731652
 20
20.18446760644147
 30
0.0
 10
9.509945272317434
 20
20.18824278793304
 30
0.0
 10
9.504478391222007
 20
20.18994452917473
 30
0.0
  0
SPLINE
  5
14B
330
1F
100
AcDbEntity
  8
0
  6
Continuous
 62
     7
370
    25
100
AcDbSpline
210
0.0
220
0.0
230
1.0
 70
     8
 71
     3
 72
     9
 73
     5
 74
     0
 42
0.00000001
 43
0.00000001
 40
0.0
 40
0.0
 40
0.0
 40
0.0
 40
0.5280901206097824
 40
1.0
 40
1.0
 40
1.0
 40
1.0
 10
9.540550269999448
 20
19.95064394654191
 30
0.0
 10
9.550243116491398
 20
19.96210444653692
 30
0.0
 10
9.568597647495986
 20
19.98380623482595
 30
0.0
 10
9.57388099834573
 20
20.01166361220341
 30
0.0
 10
9.576374263808004
 20
20.02480978380173
 30
0.0
  0
SPLINE
  5
14C
330
1F
100
AcDbEntity
  8
0
  6
Continuous
 62
     7
370
    25
100
AcDbSpline
210
0.0
220
0.0
230
1.0
 70
     8
 71
     3
 72
     9
 73
     5
 74
     0
 42
0.00000001
 43
0.00000001
 40
0.0
 40
0.0
 40
0.0
 40
0.0
 40
0.534420658089439
 40
1.0
 40
1.0
 40
1.0
 40
1.0
 10
9.509735894057389
 20
20.14408826647305
 30
0.0
 10
9.515188389446262
 20
20.13821752641954
 30
0.0
 10
9.525391017855812
 20
20.12723228480387
 30
0.0
 10
9.529067303938666
 20
20.11274109325532
 30
0.0
 10
9.530778906793795
 20
20.10599429383063
 30
0.0
  0
SPLINE
  5
14D
330
1F
100
AcDbEntity
  8
0
  6
Continuous
 62
     7
370
    25
100
AcDbSpline
210
0.0
220
0.0
230
1.0
 70
     8
 71
     3
 72
     9
 73
     5
 74
     0
 42
0.00000001
 43
0.00000001
 40
0.0
 40
0.0
 40
0.0
 40
0.0
 40
0.5485537935224328
 40
1.0
 40
1.0
 40
1.0
 40
1.0
 10
9.371175536957145
 20
20.1548511031216
 30
0.0
 10
9.365837770002477
 20
20.14737809487342
 30
0.0
 10
9.356107152845693
 20
20.1337549856425
 30
0.0
 10
9.35077741608902
 20
20.11790944604255
 30
0.0
 10
9.3483713266487
 20
20.11075603730056
 30
0.0
  0
SPLINE
  5
14E
330
1F
100
AcDbEntity
  8
0
  6
Continuous
 62
     7
370
    25
100
AcDbSpline
210
0.0
220
0.0
230
1.0
 70
     8
 71
     3
 72
     9
 73
     5
 74
     0
 42
0.00000001
 43
0.00000001
 40
0.0
 40
0.0
 40
0.0
 40
0.0
 40
0.5479164418292487
 40
1.0
 40
1.0
 40
1.0
 40
1.0
 10
9.403490199224315
 20
19.99099486092502
 30
0.0
 10
9.400353851384134
 20
19.99622799527292
 30
0.0
 10
9.394629716094988
 20
20.00577896682331
 30
0.0
 10
9.391585659825367
 20
20.01647705165463
 30
0.0
 10
9.390209492035728
 20
20.02131347991079
 30
0.0
  0
SPLINE
  5
14F
330
1F
100
AcDbEntity
  8
0
  6
Continuous
 62
     7
370
    25
100
AcDbSpline
210
0.0
220
0.0
230
1.0
 70
     8
 71
     3
 72
     9
 73
     5
 74
     0
 42
0.00000001
 43
0.00000001
 40
0.0
 40
0.0
 40
0.0
 40
0.0
 40
0.5673312345536915
 40
1.0
 40
1.0
 40
1.0
 40
1.0
 10
9.3483713266487
 20
20.11075603730056
 30
0.0
 10
9.344256789626716
 20
20.09029372671834
 30
0.0
 10
9.337004347364795
 20
20.05422606582477
 30
0.0
 10
9.345102390242246
 20
20.0184865389892
 30
0.0
 10
9.348606160456566
 20
20.00302316203563
 30
0.0
  0
SPLINE
  5
150
330
1F
100
AcDbEntity
  8
0
  6
Continuous
 62
     7
370
    25
100
AcDbSpline
210
0.0
220
0.0
230
1.0
 70
     8
 71
     3
 72
    10
 73
     6
 74
     0
 42
0.00000001
 43
0.00000001
 40
0.0
 40
0.0
 40
0.0
 40
0.0
 40
0.2368843287355996
 40
0.507263805470006
 40
1.0
 40
1.0
 40
1.0
 40
1.0
 10
9.504478391222007
 20
20.18994452917472
 30
0.0
 10
9.497023318319027
 20
20.19155607207281
 30
0.0
 10
9.48105903452276
 20
20.19500702802051
 30
0.0
 10
9.448517373158346
 20
20.19640590430238
 30
0.0
 10
9.42481119527782
 20
20.18912641260403
 30
0.0
 10
9.409504352140464
 20
20.18442611725874
 30
0.0
  0
SPLINE
  5
151
330
1F
100
AcDbEntity
  8
0
  6
Continuous
 62
     7
370
    25
100
AcDbSpline
210
0.0
220
0.0
230
1.0
 70
     8
 71
     3
 72
    19
 73
    15
 74
     0
 42
0.00000001
 43
0.00000001
 40
0.0
 40
0.0
 40
0.0
 40
0.0
 40
0.3174172254655124
 40
0.5295265632802817
 40
0.658605226246353
 40
0.7269309754424808
 40
0.7620350240603262
 40
0.7830577305718021
 40
0.8322134267909971
 40
0.8517027804364161
 40
0.8713338705574871
 40
0.9290620121470446
 40
0.9657453866794814
 40
1.0
 40
1.0
 40
1.0
 40
1.0
 10
9.651057859238326
 20
20.28767959190268
 30
0.0
 10
9.650898334227223
 20
20.24326453567495
 30
0.0
 10
9.650632209001147
 20
20.16916977900987
 30
0.0
 10
9.650413512375314
 20
20.07701630182529
 30
0.0
 10
9.650383873248908
 20
20.01970974566089
 30
0.0
 10
9.650493083583187
 20
19.98718330471771
 30
0.0
 10
9.650717456609017
 20
19.96975856485559
 30
0.0
 10
9.651544393535046
 20
19.95506927671697
 30
0.0
 10
9.652156031699352
 20
19.94240798616151
 30
0.0
 10
9.657574974727638
 20
19.93080601317139
 30
0.0
 10
9.669871366392506
 20
19.92365963816817
 30
0.0
 10
9.686234835469667
 20
19.92506529798697
 30
0.0
 10
9.704607055334037
 20
19.92361879327755
 30
0.0
 10
9.71347102489474
 20
19.92858444099998
 30
0.0
 10
9.71775126823088
 20
19.93098225841442
 30
0.0
  0
SPLINE
  5
152
330
1F
100
AcDbEntity
  8
0
  6
Continuous
 62
     7
370
    25
100
AcDbSpline
210
0.0
220
0.0
230
1.0
 70
     8
 71
     3
 72
    19
 73
    15
 74
     0
 42
0.00000001
 43
0.00000001
 40
0.0
 40
0.0
 40
0.0
 40
0.0
 40
0.0943752243023509
 40
0.1561490034092492
 40
0.1881700445177265
 40
0.2108792361002954
 40
0.2475421964439863
 40
0.2768060997355895
 40
0.325644506653143
 40
0.3936284969055937
 40
0.4689069282913616
 40
0.7216305793695299
 40
0.7934437045225794
 40
1.0
 40
1.0
 40
1.0
 40
1.0
 10
9.71775126823088
 20
19.9643289629107
 30
0.0
 10
9.714933084547287
 20
19.96359146671846
 30
0.0
 10
9.710270244518348
 20
19.96237123867357
 30
0.0
 10
9.704476939796617
 20
19.96165090922341
 30
0.0
 10
9.700870446329834
 20
19.96188784726336
 30
0.0
 10
9.698142075131749
 20
19.96277694686557
 30
0.0
 10
9.696093756985283
 20
19.96465659405826
 30
0.0
 10
9.693408473934769
 20
19.9669948294128
 30
0.0
 10
9.691662041597466
 20
19.97138886643963
 30
0.0
 10
9.691831693986392
 20
19.97734831277277
 30
0.0
 10
9.691853313065023
 20
19.98954988388613
 30
0.0
 10
9.691736856643189
 20
20.00189528469087
 30
0.0
 10
9.69155226083628
 20
20.01828055032955
 30
0.0
 10
9.691698404288239
 20
20.02686942958329
 30
0.0
 10
9.691806845976899
 20
20.03324256883447
 30
0.0
  0
SPLINE
  5
159
330
1F
100
AcDbEntity
  8
0
  6
Continuous
 62
     7
370
    25
100
AcDbSpline
210
0.0
220
0.0
230
1.0
 70
     8
 71
     3
 72
    19
 73
    15
 74
     0
 42
0.00000001
 43
0.00000001
 40
0.0
 40
0.0
 40
0.0
 40
0.0
 40
0.0943752243023526
 40
0.1561490034092637
 40
0.1881700445177329
 40
0.2108792361003287
 40
0.2475421964439726
 40
0.2768060997355345
 40
0.3256445066530841
 40
0.3936284969055838
 40
0.4689069282914003
 40
0.72163057936962
 40
0.7934437045226237
 40
1.0
 40
1.0
 40
1.0
 40
1.0
 10
9.717751268230883
 20
19.96432896291071
 30
0.0
 10
9.714933084547287
 20
19.96359146671847
 30
0.0
 10
9.710270244518348
 20
19.96237123867357
 30
0.0
 10
9.704476939796619
 20
19.96165090922344
 30
0.0
 10
9.70087044632983
 20
19.96188784726335
 30
0.0
 10
9.698142075131749
 20
19.96277694686558
 30
0.0
 10
9.696093756985276
 20
19.96465659405825
 30
0.0
 10
9.693408473934769
 20
19.9669948294128
 30
0.0
 10
9.69166204159746
 20
19.97138886643962
 30
0.0
 10
9.691831693986392
 20
19.97734831277276
 30
0.0
 10
9.691853313065014
 20
19.98954988388613
 30
0.0
 10
9.691736856643187
 20
20.00189528469088
 30
0.0
 10
9.69155226083628
 20
20.01828055032956
 30
0.0
 10
9.691698404288235
 20
20.02686942958328
 30
0.0
 10
9.69180684597689
 20
20.03324256883446
 30
0.0
  0
SPLINE
  5
15A
330
1F
100
AcDbEntity
  8
0
  6
Continuous
 62
     7
370
    25
100
AcDbSpline
210
0.0
220
0.0
230
1.0
 70
     8
 71
     3
 72
    19
 73
    15
 74
     0
 42
0.00000001
 43
0.00000001
 40
0.0
 40
0.0
 40
0.0
 40
0.0
 40
0.3174172254655101
 40
0.5295265632802744
 40
0.6586052262463489
 40
0.7269309754424681
 40
0.7620350240603039
 40
0.7830577305717906
 40
0.8322134267910064
 40
0.8517027804364272
 40
0.8713338705574952
 40
0.9290620121470508
 40
0.9657453866794941
 40
0.9999999999999999
 40
0.9999999999999999
 40
0.9999999999999999
 40
0.9999999999999999
 10
9.651057859238332
 20
20.28767959190268
 30
0.0
 10
9.650898334227225
 20
20.24326453567494
 30
0.0
 10
9.650632209001143
 20
20.16916977900987
 30
0.0
 10
9.650413512375316
 20
20.07701630182529
 30
0.0
 10
9.65038387324891
 20
20.0197097456609
 30
0.0
 10
9.650493083583182
 20
19.98718330471771
 30
0.0
 10
9.650717456609021
 20
19.9697585648556
 30
0.0
 10
9.651544393535046
 20
19.95506927671698
 30
0.0
 10
9.652156031699354
 20
19.94240798616152
 30
0.0
 10
9.657574974727632
 20
19.93080601317138
 30
0.0
 10
9.669871366392512
 20
19.92365963816819
 30
0.0
 10
9.686234835469675
 20
19.92506529798699
 30
0.0
 10
9.704607055334032
 20
19.92361879327755
 30
0.0
 10
9.713471024894737
 20
19.928584441
 30
0.0
 10
9.717751268230877
 20
19.93098225841442
 30
0.0
  0
SPLINE
  5
15B
330
1F
100
AcDbEntity
  8
0
  6
Continuous
 62
     7
370
    25
100
AcDbSpline
210
0.0
220
0.0
230
1.0
 70
     8
 71
     3
 72
    10
 73
     6
 74
     0
 42
0.00000001
 43
0.00000001
 40
0.0
 40
0.0
 40
0.0
 40
0.0
 40
0.2698648447694905
 40
0.5858087575090064
 40
1.0
 40
1.0
 40
1.0
 40
1.0
 10
9.77671864303998
 20
20.03282778444947
 30
0.0
 10
9.774391461307161
 20
20.0268372678293
 30
0.0
 10
9.769339734615736
 20
20.01383336174032
 30
0.0
 10
9.768035856815574
 20
19.98956961260326
 30
0.0
 10
9.773093084247485
 20
19.97288726369215
 30
0.0
 10
9.775961949413853
 20
19.96342369688036
 30
0.0
  0
SPLINE
  5
15C
330
1F
100
AcDbEntity
  8
0
  6
Continuous
 62
     7
370
    25
100
AcDbSpline
210
0.0
220
0.0
230
1.0
 70
     8
 71
     3
 72
     9
 73
     5
 74
     0
 42
0.00000001
 43
0.00000001
 40
0.0
 40
0.0
 40
0.0
 40
0.0
 40
0.5681470810219371
 40
1.0
 40
1.0
 40
1.0
 40
1.0
 10
9.775961949413853
 20
19.96342369688036
 30
0.0
 10
9.778695889948304
 20
19.95858187212251
 30
0.0
 10
9.78350791948392
 20
19.95005973952766
 30
0.0
 10
9.791011740081759
 20
19.94382204982484
 30
0.0
 10
9.794252286910424
 20
19.941128285319
 30
0.0
  0
SPLINE
  5
15D
330
1F
100
AcDbEntity
  8
0
  6
Continuous
 62
     7
370
    25
100
AcDbSpline
210
0.0
220
0.0
230
1.0
 70
     8
 71
     3
 72
     9
 73
     5
 74
     0
 42
0.00000001
 43
0.00000001
 40
0.0
 40
0.0
 40
0.0
 40
0.0
 40
0.5476778014876019
 40
1.0
 40
1.0
 40
1.0
 40
1.0
 10
9.905259714641106
 20
19.93386172767836
 30
0.0
 10
9.913742351495534
 20
19.9380432691135
 30
0.0
 10
9.929230722270086
 20
19.94567830822552
 30
0.0
 10
9.940841526640094
 20
19.95840895846545
 30
0.0
 10
9.946093351199233
 20
19.96416731417047
 30
0.0
  0
SPLINE
  5
15E
330
1F
100
AcDbEntity
  8
0
  6
Continuous
 62
     7
370
    25
100
AcDbSpline
210
0.0
220
0.0
230
1.0
 70
     8
 71
     3
 72
     9
 73
     5
 74
     0
 42
0.00000001
 43
0.00000001
 40
0.0
 40
0.0
 40
0.0
 40
0.0
 40
0.5451588152028889
 40
1.0
 40
1.0
 40
1.0
 40
1.0
 10
9.890217809880605
 20
20.08168460618196
 30
0.0
 10
9.884130788765605
 20
20.08091649434362
 30
0.0
 10
9.872965196381783
 20
20.07950752540297
 30
0.0
 10
9.86191273295123
 20
20.07739016714783
 30
0.0
 10
9.856885617389551
 20
20.07642710541042
 30
0.0
  0
SPLINE
  5
15F
330
1F
100
AcDbEntity
  8
0
  6
Continuous
 62
     7
370
    25
100
AcDbSpline
210
0.0
220
0.0
230
1.0
 70
     8
 71
     3
 72
    10
 73
     6
 74
     0
 42
0.00000001
 43
0.00000001
 40
0.0
 40
0.0
 40
0.0
 40
0.0
 40
0.2180499606615438
 40
0.4717217995800521
 40
1.0
 40
1.0
 40
1.0
 40
1.0
 10
9.821557356194148
 20
19.92859120063394
 30
0.0
 10
9.82760926592501
 20
19.92735677720871
 30
0.0
 10
9.840701759684135
 20
19.9246862679464
 30
0.0
 10
9.869263653685547
 20
19.92375158795465
 30
0.0
 10
9.890746262918132
 20
19.92978536429588
 30
0.0
 10
9.905259714641106
 20
19.93386172767836
 30
0.0
  0
SPLINE
  5
160
330
1F
100
AcDbEntity
  8
0
  6
Continuous
 62
     7
370
    25
100
AcDbSpline
210
0.0
220
0.0
230
1.0
 70
     8
 71
     3
 72
     9
 73
     5
 74
     0
 42
0.00000001
 43
0.00000001
 40
0.0
 40
0.0
 40
0.0
 40
0.0
 40
0.5780216235235777
 40
1.0
 40
1.0
 40
1.0
 40
1.0
 10
9.925050350904359
 20
19.98236631749963
 30
0.0
 10
9.928304006559525
 20
19.98562155927016
 30
0.0
 10
9.933932958008317
 20
19.99125325476051
 30
0.0
 10
9.937548856951087
 20
19.99832486957881
 30
0.0
 10
9.939074688116465
 20
20.00130893811891
 30
0.0
  0
SPLINE
  5
161
330
1F
100
AcDbEntity
  8
0
  6
Continuous
 62
     7
370
    25
100
AcDbSpline
210
0.0
220
0.0
230
1.0
 70
     8
 71
     3
 72
     9
 73
     5
 74
     0
 42
0.00000001
 43
0.00000001
 40
0.0
 40
0.0
 40
0.0
 40
0.0
 40
0.5247400228084078
 40
1.0
 40
1.0
 40
1.0
 40
1.0
 10
9.923784898387094
 20
20.19269199033651
 30
0.0
 10
9.910407678991234
 20
20.19414707600763
 30
0.0
 10
9.884914637076372
 20
20.19692004091953
 30
0.0
 10
9.859636627085315
 20
20.19270107691727
 30
0.0
 10
9.847623000633517
 20
20.19069597218179
 30
0.0
  0
SPLINE
  5
162
330
1F
100
AcDbEntity
  8
0
  6
Continuous
 62
     7
370
    25
100
AcDbSpline
210
0.0
220
0.0
230
1.0
 70
     8
 71
     3
 72
     9
 73
     5
 74
     0
 42
0.00000001
 43
0.00000001
 40
0.0
 40
0.0
 40
0.0
 40
0.0
 40
0.5432306318227182
 40
1.0
 40
1.0
 40
1.0
 40
1.0
 10
9.8295805481058
 20
19.97065111971558
 30
0.0
 10
9.832284804999627
 20
19.96909158525864
 30
0.0
 10
9.837262905893446
 20
19.96622073379043
 30
0.0
 10
9.842825318373043
 20
19.96480220825013
 30
0.0
 10
9.845366058006888
 20
19.96415426923533
 30
0.0
  0
SPLINE
  5
163
330
1F
100
AcDbEntity
  8
0
  6
Continuous
 62
     7
370
    25
100
AcDbSpline
210
0.0
220
0.0
230
1.0
 70
     8
 71
     3
 72
    10
 73
     6
 74
     0
 42
0.00000001
 43
0.00000001
 40
0.0
 40
0.0
 40
0.0
 40
0.0
 40
0.2368627050428452
 40
0.5161858454676597
 40
1.0
 40
1.0
 40
1.0
 40
1.0
 10
9.943588573369793
 20
20.06390307188125
 30
0.0
 10
9.94014999267056
 20
20.06182200462706
 30
0.0
 10
9.932656425098907
 20
20.05728681425217
 30
0.0
 10
9.915989768028737
 20
20.05365933458379
 30
0.0
 10
9.903283188536635
 20
20.05184061872707
 30
0.0
 10
9.895227465071681
 20
20.05068758836102
 30
0.0
  0
SPLINE
  5
164
330
1F
100
AcDbEntity
  8
0
  6
Continuous
 62
     7
370
    25
100
AcDbSpline
210
0.0
220
0.0
230
1.0
 70
     8
 71
     3
 72
     9
 73
     5
 74
     0
 42
0.00000001
 43
0.00000001
 40
0.0
 40
0.0
 40
0.0
 40
0.0
 40
0.5626756597586928
 40
0.9999999999999999
 40
0.9999999999999999
 40
0.9999999999999999
 40
0.9999999999999999
 10
9.856885617389551
 20
20.07642710541042
 30
0.0
 10
9.850774248118874
 20
20.0752317820221
 30
0.0
 10
9.839912983437019
 20
20.07310742606751
 30
0.0
 10
9.829238955086804
 20
20.07018899063242
 30
0.0
 10
9.824570942680833
 20
20.06891268778123
 30
0.0
  0
SPLINE
  5
165
330
1F
100
AcDbEntity
  8
0
  6
Continuous
 62
     7
370
    25
100
AcDbSpline
210
0.0
220
0.0
230
1.0
 70
     8
 71
     3
 72
     9
 73
     5
 74
     0
 42
0.00000001
 43
0.00000001
 40
0.0
 40
0.0
 40
0.0
 40
0.0
 40
0.5702086699682595
 40
1.0
 40
1.0
 40
1.0
 40
1.0
 10
9.847623000633517
 20
20.19069597218179
 30
0.0
 10
9.840710579767647
 20
20.18875380824481
 30
0.0
 10
9.828587963557247
 20
20.18534775000813
 30
0.0
 10
9.817895007900656
 20
20.17874133716161
 30
0.0
 10
9.813299268267038
 20
20.17590195819756
 30
0.0
  0
SPLINE
  5
166
330
1F
100
AcDbEntity
  8
0
  6
Continuous
 62
     7
370
    25
100
AcDbSpline
210
0.0
220
0.0
230
1.0
 70
     8
 71
     3
 72
     9
 73
     5
 74
     0
 42
0.00000001
 43
0.00000001
 40
0.0
 40
0.0
 40
0.0
 40
0.0
 40
0.5874425447067845
 40
1.0
 40
1.0
 40
1.0
 40
1.0
 10
9.939074688116465
 20
20.00130893811891
 30
0.0
 10
9.94052337651065
 20
20.00494749295422
 30
0.0
 10
9.942989470271204
 20
20.0111413835195
 30
0.0
 10
9.94341359680591
 20
20.01777551109286
 30
0.0
 10
9.943588573369793
 20
20.02051246988262
 30
0.0
  0
SPLINE
  5
167
330
1F
100
AcDbEntity
  8
0
  6
Continuous
 62
     7
370
    25
100
AcDbSpline
210
0.0
220
0.0
230
1.0
 70
     8
 71
     3
 72
     9
 73
     5
 74
     0
 42
0.00000001
 43
0.00000001
 40
0.0
 40
0.0
 40
0.0
 40
0.0
 40
0.5634395168701936
 40
1.0
 40
1.0
 40
1.0
 40
1.0
 10
9.818556808426955
 20
19.98236631749964
 30
0.0
 10
9.820265385381951
 20
19.97981538718266
 30
0.0
 10
9.823297790642572
 20
19.9752879618946
 30
0.0
 10
9.82767126293073
 20
19.97206022297691
 30
0.0
 10
9.829580548105803
 20
19.97065111971558
 30
0.0
  0
SPLINE
  5
168
330
1F
100
AcDbEntity
  8
0
  6
Continuous
 62
     7
370
    25
100
AcDbSpline
210
0.0
220
0.0
230
1.0
 70
     8
 71
     3
 72
     9
 73
     5
 74
     0
 42
0.00000001
 43
0.00000001
 40
0.0
 40
0.0
 40
0.0
 40
0.0
 40
0.5298952569123805
 40
1.0
 40
1.0
 40
1.0
 40
1.0
 10
9.918031638055472
 20
20.08670726079631
 30
0.0
 10
9.913167357177601
 20
20.08554788346555
 30
0.0
 10
9.903987654558227
 20
20.0833599466693
 30
0.0
 10
9.894621080684924
 20
20.08222034046422
 30
0.0
 10
9.890217809880609
 20
20.08168460618196
 30
0.0
  0
SPLINE
  5
169
330
1F
100
AcDbEntity
  8
0
  6
Continuous
 62
     7
370
    25
100
AcDbSpline
210
0.0
220
0.0
230
1.0
 70
     8
 71
     3
 72
     9
 73
     5
 74
     0
 42
0.00000001
 43
0.00000001
 40
0.0
 40
0.0
 40
0.0
 40
0.0
 40
0.5434172675488492
 40
1.0
 40
1.0
 40
1.0
 40
1.0
 10
9.794252286910424
 20
19.941128285319
 30
0.0
 10
9.798882829785418
 20
19.93815467432552
 30
0.0
 10
9.807403984985138
 20
19.93268261598095
 30
0.0
 10
9.817120818017473
 20
19.92987370217478
 30
0.0
 10
9.821557356194148
 20
19.92859120063394
 30
0.0
  0
SPLINE
  5
16A
330
1F
100
AcDbEntity
  8
0
  6
Continuous
 62
     7
370
    25
100
AcDbSpline
210
0.0
220
0.0
230
1.0
 70
     8
 71
     3
 72
    11
 73
     7
 74
     0
 42
0.00000001
 43
0.00000001
 40
0.0
 40
0.0
 40
0.0
 40
0.0
 40
0.3245511965071489
 40
0.6026968060639767
 40
0.8025589869529541
 40
0.9999999999999999
 40
0.9999999999999999
 40
0.9999999999999999
 40
0.9999999999999999
 10
9.821818279882544
 20
20.10850693371831
 30
0.0
 10
9.822284657563907
 20
20.11341185499722
 30
0.0
 10
9.823150728439632
 20
20.12252037291553
 30
0.0
 10
9.827675103890607
 20
20.13395591228972
 30
0.0
 10
9.83384887930278
 20
20.14229809965359
 30
0.0
 10
9.838867141146517
 20
20.14566922190326
 30
0.0
 10
9.841360981410789
 20
20.14734451120935
 30
0.0
  0
SPLINE
  5
16B
330
1F
100
AcDbEntity
  8
0
  6
Continuous
 62
     7
370
    25
100
AcDbSpline
210
0.0
220
0.0
230
1.0
 70
     8
 71
     3
 72
     9
 73
     5
 74
     0
 42
0.00000001
 43
0.00000001
 40
0.0
 40
0.0
 40
0.0
 40
0.0
 40
0.5486522687284693
 40
1.0
 40
1.0
 40
1.0
 40
1.0
 10
9.955121121705892
 20
20.18245097597683
 30
0.0
 10
9.949628814410096
 20
20.18507624814842
 30
0.0
 10
9.939618271104548
 20
20.18986119541142
 30
0.0
 10
9.928708843696976
 20
20.1918116548803
 30
0.0
 10
9.923784898387094
 20
20.19269199033651
 30
0.0
  0
SPLINE
  5
16C
330
1F
100
AcDbEntity
  8
0
  6
Continuous
 62
     7
370
    25
100
AcDbSpline
210
0.0
220
0.0
230
1.0
 70
     8
 71
     3
 72
     9
 73
     5
 74
     0
 42
0.00000001
 43
0.00000001
 40
0.0
 40
0.0
 40
0.0
 40
0.0
 40
0.5701777210890102
 40
1.0
 40
1.0
 40
1.0
 40
1.0
 10
9.824570942680833
 20
20.06891268778123
 30
0.0
 10
9.818917709165675
 20
20.06704371761466
 30
0.0
 10
9.809002846998908
 20
20.06376584459815
 30
0.0
 10
9.800264965622928
 20
20.05807711575849
 30
0.0
 10
9.796509229537051
 20
20.05563197336452
 30
0.0
  0
SPLINE
  5
16D
330
1F
100
AcDbEntity
  8
0
  6
Continuous
 62
     7
370
    25
100
AcDbSpline
210
0.0
220
0.0
230
1.0
 70
     8
 71
     3
 72
     9
 73
     5
 74
     0
 42
0.00000001
 43
0.00000001
 40
0.0
 40
0.0
 40
0.0
 40
0.0
 40
0.57935880641922
 40
0.9999999999999999
 40
0.9999999999999999
 40
0.9999999999999999
 40
0.9999999999999999
 10
9.866409108067863
 20
20.04669555205154
 30
0.0
 10
9.861246354332083
 20
20.04575570389642
 30
0.0
 10
9.852335203455329
 20
20.04413348266717
 30
0.0
 10
9.843903270798751
 20
20.04084950973214
 30
0.0
 10
9.840356452581894
 20
20.03946813543706
 30
0.0
  0
SPLINE
  5
16E
330
1F
100
AcDbEntity
  8
0
  6
Continuous
 62
     7
370
    25
100
AcDbSpline
210
0.0
220
0.0
230
1.0
 70
     8
 71
     3
 72
     9
 73
     5
 74
     0
 42
0.00000001
 43
0.00000001
 40
0.0
 40
0.0
 40
0.0
 40
0.0
 40
0.5998371471456153
 40
1.0
 40
1.0
 40
1.0
 40
1.0
 10
9.986196421336334
 20
20.1241880779416
 30
0.0
 10
9.985914664625227
 20
20.13186184062715
 30
0.0
 10
9.985444942614098
 20
20.14465491741821
 30
0.0
 10
9.979888073403632
 20
20.15610754171235
 30
0.0
 10
9.977664420767434
 20
20.16069045652257
 30
0.0
  0
SPLINE
  5
16F
330
1F
100
AcDbEntity
  8
0
  6
Continuous
 62
     7
370
    25
100
AcDbSpline
210
0.0
220
0.0
230
1.0
 70
     8
 71
     3
 72
    11
 73
     7
 74
     0
 42
0.00000001
 43
0.00000001
 40
0.0
 40
0.0
 40
0.0
 40
0.0
 40
0.2384522827219413
 40
0.5004086139390793
 40
0.7323128910337069
 40
1.0
 40
1.0
 40
1.0
 40
1.0
 10
9.841360981410787
 20
20.14734451120935
 30
0.0
 10
9.846194254260745
 20
20.14964639554283
 30
0.0
 10
9.856337211753234
 20
20.1544770590853
 30
0.0
 10
9.87264504224449
 20
20.1572264918737
 30
0.0
 10
9.889681118116306
 20
20.15801990621837
 30
0.0
 10
9.900801550953055
 20
20.1567772075614
 30
0.0
 10
9.906760013407728
 20
20.15611135458619
 30
0.0
  0
SPLINE
  5
170
330
1F
100
AcDbEntity
  8
0
  6
Continuous
 62
     7
370
    25
100
AcDbSpline
210
0.0
220
0.0
230
1.0
 70
     8
 71
     3
 72
    12
 73
     8
 74
     0
 42
0.00000001
 43
0.00000001
 40
0.0
 40
0.0
 40
0.0
 40
0.0
 40
0.1661378630748587
 40
0.342290036135832
 40
0.5508389476144092
 40
0.7968690404825782
 40
1.0
 40
1.0
 40
1.0
 40
1.0
 10
9.955864726846414
 20
19.93386172767835
 30
0.0
 10
9.958505896141638
 20
19.93179539505459
 30
0.0
 10
9.963947436780067
 20
19.92753817725146
 30
0.0
 10
9.974858723327099
 20
19.92459280187839
 30
0.0
 10
9.987475031970195
 20
19.92448299974156
 30
0.0
 10
10.00077821614032
 20
19.92567916334226
 30
0.0
 10
10.0090182711335
 20
19.92940913867668
 30
0.0
 10
10.01274479699399
 20
19.93109600236318
 30
0.0
  0
SPLINE
  5
171
330
1F
100
AcDbEntity
  8
0
  6
Continuous
 62
     7
370
    25
100
AcDbSpline
210
0.0
220
0.0
230
1.0
 70
     8
 71
     3
 72
     9
 73
     5
 74
     0
 42
0.00000001
 43
0.00000001
 40
0.0
 40
0.0
 40
0.0
 40
0.0
 40
0.5717089162448854
 40
1.0
 40
1.0
 40
1.0
 40
1.0
 10
9.906760013407728
 20
20.15611135458619
 30
0.0
 10
9.910445970810365
 20
20.1554173078711
 30
0.0
 10
9.916893233215932
 20
20.15420332170546
 30
0.0
 10
9.922777889889113
 20
20.15132847081406
 30
0.0
 10
9.925298235873196
 20
20.15009719781015
 30
0.0
  0
SPLINE
  5
172
330
1F
100
AcDbEntity
  8
0
  6
Continuous
 62
     7
370
    25
100
AcDbSpline
210
0.0
220
0.0
230
1.0
 70
     8
 71
     3
 72
     9
 73
     5
 74
     0
 42
0.00000001
 43
0.00000001
 40
0.0
 40
0.0
 40
0.0
 40
0.0
 40
0.5573103616105785
 40
0.9999999999999999
 40
0.9999999999999999
 40
0.9999999999999999
 40
0.9999999999999999
 10
9.89522746507168
 20
20.05068758836102
 30
0.0
 10
9.889865927474512
 20
20.05000300809549
 30
0.0
 10
9.880245547222346
 20
20.0487746435922
 30
0.0
 10
9.870654822518778
 20
20.04733352175606
 30
0.0
 10
9.866409108067865
 20
20.04669555205155
 30
0.0
  0
SPLINE
  5
173
330
1F
100
AcDbEntity
  8
0
  6
Continuous
 62
     7
370
    25
100
AcDbSpline
210
0.0
220
0.0
230
1.0
 70
     8
 71
     3
 72
     9
 73
     5
 74
     0
 42
0.00000001
 43
0.00000001
 40
0.0
 40
0.0
 40
0.0
 40
0.0
 40
0.5675477684837134
 40
1.0
 40
1.0
 40
1.0
 40
1.0
 10
9.840356452581894
 20
20.03946813543706
 30
0.0
 10
9.83630078454911
 20
20.03741495428078
 30
0.0
 10
9.829154834449405
 20
20.03379731842651
 30
0.0
 10
9.823851007844864
 20
20.02782909501484
 30
0.0
 10
9.821557356194155
 20
20.02524812348227
 30
0.0
  0
SPLINE
  5
174
330
1F
100
AcDbEntity
  8
0
  6
Continuous
 62
     7
370
    25
100
AcDbSpline
210
0.0
220
0.0
230
1.0
 70
     8
 71
     3
 72
     9
 73
     5
 74
     0
 42
0.00000001
 43
0.00000001
 40
0.0
 40
0.0
 40
0.0
 40
0.0
 40
0.6184111159093862
 40
1.0
 40
1.0
 40
1.0
 40
1.0
 10
9.946093351199233
 20
19.96416731417047
 30
0.0
 10
9.946311388402993
 20
19.95723983414184
 30
0.0
 10
9.946663964865722
 20
19.94603777154884
 30
0.0
 10
9.953323516116201
 20
19.93722469841927
 30
0.0
 10
9.955864726846414
 20
19.93386172767835
 30
0.0
  0
SPLINE
  5
175
330
1F
100
AcDbEntity
  8
0
  6
Continuous
 62
     7
370
    25
100
AcDbSpline
210
0.0
220
0.0
230
1.0
 70
     8
 71
     3
 72
     9
 73
     5
 74
     0
 42
0.00000001
 43
0.00000001
 40
0.0
 40
0.0
 40
0.0
 40
0.0
 40
0.5547770813291296
 40
1.0
 40
1.0
 40
1.0
 40
1.0
 10
9.813299268267038
 20
20.17590195819756
 30
0.0
 10
9.807979366473743
 20
20.17170553075697
 30
0.0
 10
9.798390106260342
 20
20.16414136204522
 30
0.0
 10
9.792060684925625
 20
20.15372864821731
 30
0.0
 10
9.789242681485483
 20
20.14909266937556
 30
0.0
  0
SPLINE
  5
176
330
1F
100
AcDbEntity
  8
0
  6
Continuous
 62
     7
370
    25
100
AcDbSpline
210
0.0
220
0.0
230
1.0
 70
     8
 71
     3
 72
     9
 73
     5
 74
     0
 42
0.00000001
 43
0.00000001
 40
0.0
 40
0.0
 40
0.0
 40
0.0
 40
0.5871960810769825
 40
1.0
 40
1.0
 40
1.0
 40
1.0
 10
9.900484955465506
 20
19.96791148427069
 30
0.0
 10
9.905687490553197
 20
19.97009560298067
 30
0.0
 10
9.91454745276232
 20
19.97381517601659
 30
0.0
 10
9.921981533317565
 20
19.97986777918997
 30
0.0
 10
9.925050350904359
 20
19.98236631749963
 30
0.0
  0
SPLINE
  5
177
330
1F
100
AcDbEntity
  8
0
  6
Continuous
 62
     7
370
    25
100
AcDbSpline
210
0.0
220
0.0
230
1.0
 70
     8
 71
     3
 72
     9
 73
     5
 74
     0
 42
0.00000001
 43
0.00000001
 40
0.0
 40
0.0
 40
0.0
 40
0.0
 40
0.4725573283197046
 40
1.0
 40
1.0
 40
1.0
 40
1.0
 10
9.987931516586249
 20
19.96916388513528
 30
0.0
 10
9.987377942663382
 20
19.97260978285121
 30
0.0
 10
9.986206499772345
 20
19.97990180333088
 30
0.0
 10
9.98619990153059
 20
19.98728900762641
 30
0.0
 10
9.986196421336333
 20
19.9911853343963
 30
0.0
  0
SPLINE
  5
178
330
1F
100
AcDbEntity
  8
0
  6
Continuous
 62
     7
370
    25
100
AcDbSpline
210
0.0
220
0.0
230
1.0
 70
     8
 71
     3
 72
    13
 73
     9
 74
     0
 42
0.00000001
 43
0.00000001
 40
0.0
 40
0.0
 40
0.0
 40
0.0
 40
0.2556246604485363
 40
0.4704360446354303
 40
0.6316238936074062
 40
0.7636896867094357
 40
0.8801877457658935
 40
1.0
 40
1.0
 40
1.0
 40
1.0
 10
10.01274479699399
 20
19.96416731417047
 30
0.0
 10
10.0104183131798
 20
19.96360702715091
 30
0.0
 10
10.00613679416856
 20
19.9625759090699
 30
0.0
 10
10.00023214737145
 20
19.9620274963306
 30
0.0
 10
9.995458285497664
 20
19.96237443418669
 30
0.0
 10
9.99178996393117
 20
19.96364684503302
 30
0.0
 10
9.989060380404675
 20
19.96597664429389
 30
0.0
 10
9.988311306386567
 20
19.96809158434668
 30
0.0
 10
9.987931516586247
 20
19.96916388513528
 30
0.0
  0
SPLINE
  5
17A
330
1F
100
AcDbEntity
  8
0
  6
Continuous
 62
     7
370
    25
100
AcDbSpline
210
0.0
220
0.0
230
1.0
 70
     8
 71
     3
 72
    10
 73
     6
 74
     0
 42
0.00000001
 43
0.00000001
 40
0.0
 40
0.0
 40
0.0
 40
0.0
 40
0.1889908035869088
 40
0.4328850609687154
 40
1.0
 40
1.0
 40
1.0
 40
1.0
 10
9.845366058006888
 20
19.96415426923533
 30
0.0
 10
9.848826829581329
 20
19.96354235100893
 30
0.0
 10
9.856753756635811
 20
19.96214074704877
 30
0.0
 10
9.875464514739164
 20
19.96178859924406
 30
0.0
 10
9.890188738055103
 20
19.96539184218674
 30
0.0
 10
9.900484955465506
 20
19.96791148427069
 30
0.0
  0
SPLINE
  5
17B
330
1F
100
AcDbEntity
  8
0
  6
Continuous
 62
     7
370
    25
100
AcDbSpline
210
0.0
220
0.0
230
1.0
 70
     8
 71
     3
 72
     9
 73
     5
 74
     0
 42
0.00000001
 43
0.00000001
 40
0.0
 40
0.0
 40
0.0
 40
0.0
 40
0.5508853821065206
 40
1.0
 40
1.0
 40
1.0
 40
1.0
 10
9.925298235873196
 20
20.15009719781015
 30
0.0
 10
9.92824788637774
 20
20.14817427388184
 30
0.0
 10
9.933602267888583
 20
20.1446836676854
 30
0.0
 10
9.93720759709754
 20
20.13942575932683
 30
0.0
 10
9.9388268031476
 20
20.13706435582346
 30
0.0
  0
SPLINE
  5
17C
330
1F
100
AcDbEntity
  8
0
  6
Continuous
 62
     7
370
    25
100
AcDbSpline
210
0.0
220
0.0
230
1.0
 70
     8
 71
     3
 72
    11
 73
     7
 74
     0
 42
0.00000001
 43
0.00000001
 40
0.0
 40
0.0
 40
0.0
 40
0.0
 40
0.3060817330558975
 40
0.6456622154520979
 40
0.8312915283117195
 40
1.0
 40
1.0
 40
1.0
 40
1.0
 10
9.821557356194155
 20
20.02524812348227
 30
0.0
 10
9.81927693701135
 20
20.02120437740965
 30
0.0
 10
9.814466520894625
 20
20.01267432230997
 30
0.0
 10
9.813948331800264
 20
19.99988897276526
 30
0.0
 10
9.815135189794859
 20
19.98947720083132
 30
0.0
 10
9.817453165979964
 20
19.9846599315824
 30
0.0
 10
9.818556808426955
 20
19.98236631749964
 30
0.0
  0
SPLINE
  5
17D
330
1F
100
AcDbEntity
  8
0
  6
Continuous
 62
     7
370
    25
100
AcDbSpline
210
0.0
220
0.0
230
1.0
 70
     8
 71
     3
 72
     9
 73
     5
 74
     0
 42
0.00000001
 43
0.00000001
 40
0.0
 40
0.0
 40
0.0
 40
0.0
 40
0.5617825146079227
 40
1.0
 40
1.0
 40
1.0
 40
1.0
 10
9.977664420767434
 20
20.16069045652257
 30
0.0
 10
9.974208687213485
 20
20.16558517259456
 30
0.0
 10
9.968057314637637
 20
20.17429800352951
 30
0.0
 10
9.95906271329039
 20
20.17996680712156
 30
0.0
 10
9.955121121705893
 20
20.18245097597684
 30
0.0
  0
SPLINE
  5
17E
330
1F
100
AcDbEntity
  8
0
  6
Continuous
 62
     7
370
    25
100
AcDbSpline
210
0.0
220
0.0
230
1.0
 70
     8
 71
     3
 72
     9
 73
     5
 74
     0
 42
0.00000001
 43
0.00000001
 40
0.0
 40
0.0
 40
0.0
 40
0.0
 40
0.5523899843231272
 40
1.0
 40
1.0
 40
1.0
 40
1.0
 10
9.796509229537051
 20
20.05563197336452
 30
0.0
 10
9.79215006281701
 20
20.05203852417915
 30
0.0
 10
9.7842585969256
 20
20.04553324840053
 30
0.0
 10
9.779050043652296
 20
20.03675639288457
 30
0.0
 10
9.77671864303998
 20
20.03282778444947
 30
0.0
  0
SPLINE
  5
17F
330
1F
100
AcDbEntity
  8
0
  6
Continuous
 62
     7
370
    25
100
AcDbSpline
210
0.0
220
0.0
230
1.0
 70
     8
 71
     3
 72
     9
 73
     5
 74
     0
 42
0.00000001
 43
0.00000001
 40
0.0
 40
0.0
 40
0.0
 40
0.0
 40
0.5278696394470612
 40
1.0
 40
1.0
 40
1.0
 40
1.0
 10
9.789242681485483
 20
20.14909266937556
 30
0.0
 10
9.786285174385098
 20
20.14223808268162
 30
0.0
 10
9.78068245189573
 20
20.12925270488811
 30
0.0
 10
9.779682493070544
 20
20.11516035836384
 30
0.0
 10
9.779210382149873
 20
20.1085069337183
 30
0.0
  0
SPLINE
  5
180
330
1F
100
AcDbEntity
  8
0
  6
Continuous
 62
     7
370
    25
100
AcDbSpline
210
0.0
220
0.0
230
1.0
 70
     8
 71
     3
 72
    11
 73
     7
 74
     0
 42
0.00000001
 43
0.00000001
 40
0.0
 40
0.0
 40
0.0
 40
0.0
 40
0.2770805551161042
 40
0.601891825570505
 40
0.8114635969058788
 40
0.9999999999999999
 40
0.9999999999999999
 40
0.9999999999999999
 40
0.9999999999999999
 10
9.9388268031476
 20
20.13706435582346
 30
0.0
 10
9.94046591300285
 20
20.13336629464623
 30
0.0
 10
9.944026490621416
 20
20.12533313334372
 30
0.0
 10
9.944524569514133
 20
20.11341947295101
 30
0.0
 10
9.942727747151032
 20
20.1027772065028
 30
0.0
 10
9.938894175334054
 20
20.09833466344461
 30
0.0
 10
9.937078669178193
 20
20.09623076017767
 30
0.0
  0
SPLINE
  5
181
330
1F
100
AcDbEntity
  8
0
  6
Continuous
 62
     7
370
    25
100
AcDbSpline
210
0.0
220
0.0
230
1.0
 70
     8
 71
     3
 72
     9
 73
     5
 74
     0
 42
0.00000001
 43
0.00000001
 40
0.0
 40
0.0
 40
0.0
 40
0.0
 40
0.5237449186992382
 40
1.0
 40
1.0
 40
1.0
 40
1.0
 10
9.937078669178193
 20
20.09623076017767
 30
0.0
 10
9.934031766895853
 20
20.09400374964103
 30
0.0
 10
9.928214235930762
 20
20.08975165963091
 30
0.0
 10
9.921316648918687
 20
20.08768941519012
 30
0.0
 10
9.918031638055472
 20
20.08670726079631
 30
0.0
  0
SPLINE
  5
188
330
1F
100
AcDbEntity
  8
0
  6
Continuous
 62
     7
370
    25
100
AcDbSpline
210
0.0
220
0.0
230
1.0
 70
     8
 71
     3
 72
     9
 73
     5
 74
     0
 42
0.00000001
 43
0.00000001
 40
0.0
 40
0.0
 40
0.0
 40
0.0
 40
0.5237449186995973
 40
1.0
 40
1.0
 40
1.0
 40
1.0
 10
9.9370786691782
 20
20.09623076017769
 30
0.0
 10
9.934031766895858
 20
20.09400374964104
 30
0.0
 10
9.928214235930767
 20
20.08975165963092
 30
0.0
 10
9.921316648918692
 20
20.08768941519012
 30
0.0
 10
9.91803163805548
 20
20.08670726079631
 30
0.0
  0
SPLINE
  5
189
330
1F
100
AcDbEntity
  8
0
  6
Continuous
 62
     7
370
    25
100
AcDbSpline
210
0.0
220
0.0
230
1.0
 70
     8
 71
     3
 72
    11
 73
     7
 74
     0
 42
0.00000001
 43
0.00000001
 40
0.0
 40
0.0
 40
0.0
 40
0.0
 40
0.2770805551160341
 40
0.6018918255707777
 40
0.8114635969061312
 40
1.0
 40
1.0
 40
1.0
 40
1.0
 10
9.938826803147599
 20
20.13706435582346
 30
0.0
 10
9.940465913002848
 20
20.13336629464623
 30
0.0
 10
9.944026490621415
 20
20.12533313334372
 30
0.0
 10
9.944524569514133
 20
20.11341947295103
 30
0.0
 10
9.942727747151034
 20
20.1027772065028
 30
0.0
 10
9.93889417533406
 20
20.09833466344463
 30
0.0
 10
9.9370786691782
 20
20.09623076017769
 30
0.0
  0
SPLINE
  5
18A
330
1F
100
AcDbEntity
  8
0
  6
Continuous
 62
     7
370
    25
100
AcDbSpline
210
0.0
220
0.0
230
1.0
 70
     8
 71
     3
 72
     9
 73
     5
 74
     0
 42
0.00000001
 43
0.00000001
 40
0.0
 40
0.0
 40
0.0
 40
0.0
 40
0.5278696394472797
 40
1.0
 40
1.0
 40
1.0
 40
1.0
 10
9.789242681485485
 20
20.14909266937556
 30
0.0
 10
9.7862851743851
 20
20.14223808268161
 30
0.0
 10
9.780682451895734
 20
20.12925270488811
 30
0.0
 10
9.779682493070544
 20
20.11516035836385
 30
0.0
 10
9.779210382149872
 20
20.10850693371831
 30
0.0
  0
SPLINE
  5
18B
330
1F
100
AcDbEntity
  8
0
  6
Continuous
 62
     7
370
    25
100
AcDbSpline
210
0.0
220
0.0
230
1.0
 70
     8
 71
     3
 72
     9
 73
     5
 74
     0
 42
0.00000001
 43
0.00000001
 40
0.0
 40
0.0
 40
0.0
 40
0.0
 40
0.5523899843228605
 40
0.9999999999999999
 40
0.9999999999999999
 40
0.9999999999999999
 40
0.9999999999999999
 10
9.79650922953705
 20
20.05563197336452
 30
0.0
 10
9.792150062817008
 20
20.05203852417914
 30
0.0
 10
9.784258596925593
 20
20.04553324840051
 30
0.0
 10
9.779050043652298
 20
20.03675639288455
 30
0.0
 10
9.776718643039983
 20
20.03282778444946
 30
0.0
  0
SPLINE
  5
18C
330
1F
100
AcDbEntity
  8
0
  6
Continuous
 62
     7
370
    25
100
AcDbSpline
210
0.0
220
0.0
230
1.0
 70
     8
 71
     3
 72
     9
 73
     5
 74
     0
 42
0.00000001
 43
0.00000001
 40
0.0
 40
0.0
 40
0.0
 40
0.0
 40
0.5617825146078511
 40
1.0
 40
1.0
 40
1.0
 40
1.0
 10
9.977664420767436
 20
20.16069045652258
 30
0.0
 10
9.974208687213485
 20
20.16558517259458
 30
0.0
 10
9.968057314637637
 20
20.17429800352952
 30
0.0
 10
9.959062713290391
 20
20.17996680712156
 30
0.0
 10
9.955121121705897
 20
20.18245097597685
 30
0.0
  0
SPLINE
  5
18D
330
1F
100
AcDbEntity
  8
0
  6
Continuous
 62
     7
370
    25
100
AcDbSpline
210
0.0
220
0.0
230
1.0
 70
     8
 71
     3
 72
    11
 73
     7
 74
     0
 42
0.00000001
 43
0.00000001
 40
0.0
 40
0.0
 40
0.0
 40
0.0
 40
0.3060817330558926
 40
0.6456622154520861
 40
0.8312915283117867
 40
1.0
 40
1.0
 40
1.0
 40
1.0
 10
9.821557356194148
 20
20.02524812348227
 30
0.0
 10
9.819276937011349
 20
20.02120437740965
 30
0.0
 10
9.814466520894626
 20
20.01267432230996
 30
0.0
 10
9.813948331800267
 20
19.99988897276527
 30
0.0
 10
9.815135189794852
 20
19.98947720083132
 30
0.0
 10
9.817453165979963
 20
19.9846599315824
 30
0.0
 10
9.818556808426955
 20
19.98236631749964
 30
0.0
  0
SPLINE
  5
18E
330
1F
100
AcDbEntity
  8
0
  6
Continuous
 62
     7
370
    25
100
AcDbSpline
210
0.0
220
0.0
230
1.0
 70
     8
 71
     3
 72
     9
 73
     5
 74
     0
 42
0.00000001
 43
0.00000001
 40
0.0
 40
0.0
 40
0.0
 40
0.0
 40
0.5508853821066565
 40
1.0
 40
1.0
 40
1.0
 40
1.0
 10
9.925298235873196
 20
20.15009719781013
 30
0.0
 10
9.92824788637774
 20
20.14817427388182
 30
0.0
 10
9.933602267888578
 20
20.14468366768538
 30
0.0
 10
9.937207597097538
 20
20.13942575932683
 30
0.0
 10
9.938826803147597
 20
20.13706435582346
 30
0.0
  0
SPLINE
  5
18F
330
1F
100
AcDbEntity
  8
0
  6
Continuous
 62
     7
370
    25
100
AcDbSpline
210
0.0
220
0.0
230
1.0
 70
     8
 71
     3
 72
    10
 73
     6
 74
     0
 42
0.00000001
 43
0.00000001
 40
0.0
 40
0.0
 40
0.0
 40
0.0
 40
0.1889908035867619
 40
0.4328850609687538
 40
1.0
 40
1.0
 40
1.0
 40
1.0
 10
9.845366058006887
 20
19.96415426923533
 30
0.0
 10
9.848826829581329
 20
19.96354235100894
 30
0.0
 10
9.856753756635811
 20
19.96214074704878
 30
0.0
 10
9.875464514739159
 20
19.96178859924407
 30
0.0
 10
9.890188738055107
 20
19.96539184218674
 30
0.0
 10
9.90048495546551
 20
19.96791148427068
 30
0.0
  0
SPLINE
  5
191
330
1F
100
AcDbEntity
  8
0
  6
Continuous
 62
     7
370
    25
100
AcDbSpline
210
0.0
220
0.0
230
1.0
 70
     8
 71
     3
 72
    13
 73
     9
 74
     0
 42
0.00000001
 43
0.00000001
 40
0.0
 40
0.0
 40
0.0
 40
0.0
 40
0.2556246604483638
 40
0.4704360446349081
 40
0.6316238936070193
 40
0.7636896867091232
 40
0.8801877457656248
 40
1.0
 40
1.0
 40
1.0
 40
1.0
 10
10.01274479699398
 20
19.96416731417046
 30
0.0
 10
10.0104183131798
 20
19.96360702715091
 30
0.0
 10
10.00613679416856
 20
19.9625759090699
 30
0.0
 10
10.00023214737146
 20
19.9620274963306
 30
0.0
 10
9.99545828549766
 20
19.96237443418667
 30
0.0
 10
9.991789963931176
 20
19.96364684503303
 30
0.0
 10
9.989060380404666
 20
19.96597664429389
 30
0.0
 10
9.988311306386562
 20
19.96809158434669
 30
0.0
 10
9.987931516586244
 20
19.96916388513529
 30
0.0
  0
SPLINE
  5
192
330
1F
100
AcDbEntity
  8
0
  6
Continuous
 62
     7
370
    25
100
AcDbSpline
210
0.0
220
0.0
230
1.0
 70
     8
 71
     3
 72
     9
 73
     5
 74
     0
 42
0.00000001
 43
0.00000001
 40
0.0
 40
0.0
 40
0.0
 40
0.0
 40
0.4725573283201559
 40
1.0
 40
1.0
 40
1.0
 40
1.0
 10
9.987931516586242
 20
19.96916388513529
 30
0.0
 10
9.987377942663375
 20
19.97260978285121
 30
0.0
 10
9.986206499772338
 20
19.97990180333087
 30
0.0
 10
9.98619990153059
 20
19.9872890076264
 30
0.0
 10
9.98619642133633
 20
19.99118533439628
 30
0.0
  0
SPLINE
  5
193
330
1F
100
AcDbEntity
  8
0
  6
Continuous
 62
     7
370
    25
100
AcDbSpline
210
0.0
220
0.0
230
1.0
 70
     8
 71
     3
 72
     9
 73
     5
 74
     0
 42
0.00000001
 43
0.00000001
 40
0.0
 40
0.0
 40
0.0
 40
0.0
 40
0.587196081076961
 40
1.0
 40
1.0
 40
1.0
 40
1.0
 10
9.90048495546551
 20
19.96791148427068
 30
0.0
 10
9.905687490553197
 20
19.97009560298066
 30
0.0
 10
9.914547452762319
 20
19.97381517601659
 30
0.0
 10
9.921981533317563
 20
19.97986777918997
 30
0.0
 10
9.925050350904355
 20
19.98236631749962
 30
0.0
  0
SPLINE
  5
194
330
1F
100
AcDbEntity
  8
0
  6
Continuous
 62
     7
370
    25
100
AcDbSpline
210
0.0
220
0.0
230
1.0
 70
     8
 71
     3
 72
     9
 73
     5
 74
     0
 42
0.00000001
 43
0.00000001
 40
0.0
 40
0.0
 40
0.0
 40
0.0
 40
0.5547770813291403
 40
0.9999999999999999
 40
0.9999999999999999
 40
0.9999999999999999
 40
0.9999999999999999
 10
9.81329926826703
 20
20.17590195819755
 30
0.0
 10
9.807979366473734
 20
20.17170553075697
 30
0.0
 10
9.798390106260332
 20
20.16414136204521
 30
0.0
 10
9.792060684925623
 20
20.1537286482173
 30
0.0
 10
9.789242681485485
 20
20.14909266937556
 30
0.0
  0
SPLINE
  5
195
330
1F
100
AcDbEntity
  8
0
  6
Continuous
 62
     7
370
    25
100
AcDbSpline
210
0.0
220
0.0
230
1.0
 70
     8
 71
     3
 72
     9
 73
     5
 74
     0
 42
0.00000001
 43
0.00000001
 40
0.0
 40
0.0
 40
0.0
 40
0.0
 40
0.6184111159092954
 40
0.9999999999999999
 40
0.9999999999999999
 40
0.9999999999999999
 40
0.9999999999999999
 10
9.946093351199224
 20
19.96416731417046
 30
0.0
 10
9.946311388402988
 20
19.95723983414183
 30
0.0
 10
9.94666396486573
 20
19.94603777154883
 30
0.0
 10
9.95332351611621
 20
19.93722469841926
 30
0.0
 10
9.955864726846427
 20
19.93386172767834
 30
0.0
  0
SPLINE
  5
196
330
1F
100
AcDbEntity
  8
0
  6
Continuous
 62
     7
370
    25
100
AcDbSpline
210
0.0
220
0.0
230
1.0
 70
     8
 71
     3
 72
     9
 73
     5
 74
     0
 42
0.00000001
 43
0.00000001
 40
0.0
 40
0.0
 40
0.0
 40
0.0
 40
0.5675477684836687
 40
1.0
 40
1.0
 40
1.0
 40
1.0
 10
9.840356452581894
 20
20.03946813543706
 30
0.0
 10
9.83630078454911
 20
20.03741495428079
 30
0.0
 10
9.8291548344494
 20
20.03379731842652
 30
0.0
 10
9.823851007844858
 20
20.02782909501484
 30
0.0
 10
9.821557356194148
 20
20.02524812348227
 30
0.0
  0
SPLINE
  5
197
330
1F
100
AcDbEntity
  8
0
  6
Continuous
 62
     7
370
    25
100
AcDbSpline
210
0.0
220
0.0
230
1.0
 70
     8
 71
     3
 72
     9
 73
     5
 74
     0
 42
0.00000001
 43
0.00000001
 40
0.0
 40
0.0
 40
0.0
 40
0.0
 40
0.5573103616104065
 40
0.9999999999999999
 40
0.9999999999999999
 40
0.9999999999999999
 40
0.9999999999999999
 10
9.895227465071669
 20
20.05068758836102
 30
0.0
 10
9.889865927474505
 20
20.0500030080955
 30
0.0
 10
9.88024554722234
 20
20.0487746435922
 30
0.0
 10
9.870654822518784
 20
20.04733352175606
 30
0.0
 10
9.866409108067868
 20
20.04669555205153
 30
0.0
  0
SPLINE
  5
198
330
1F
100
AcDbEntity
  8
0
  6
Continuous
 62
     7
370
    25
100
AcDbSpline
210
0.0
220
0.0
230
1.0
 70
     8
 71
     3
 72
     9
 73
     5
 74
     0
 42
0.00000001
 43
0.00000001
 40
0.0
 40
0.0
 40
0.0
 40
0.0
 40
0.5717089162452311
 40
1.0
 40
1.0
 40
1.0
 40
1.0
 10
9.906760013407721
 20
20.15611135458619
 30
0.0
 10
9.910445970810361
 20
20.1554173078711
 30
0.0
 10
9.916893233215939
 20
20.15420332170547
 30
0.0
 10
9.922777889889115
 20
20.15132847081405
 30
0.0
 10
9.925298235873196
 20
20.15009719781013
 30
0.0
  0
SPLINE
  5
199
330
1F
100
AcDbEntity
  8
0
  6
Continuous
 62
     7
370
    25
100
AcDbSpline
210
0.0
220
0.0
230
1.0
 70
     8
 71
     3
 72
    12
 73
     8
 74
     0
 42
0.00000001
 43
0.00000001
 40
0.0
 40
0.0
 40
0.0
 40
0.0
 40
0.1661378630746794
 40
0.3422900361356717
 40
0.5508389476143183
 40
0.7968690404825525
 40
1.0
 40
1.0
 40
1.0
 40
1.0
 10
9.955864726846427
 20
19.93386172767834
 30
0.0
 10
9.958505896141647
 20
19.93179539505458
 30
0.0
 10
9.963947436780066
 20
19.92753817725145
 30
0.0
 10
9.974858723327092
 20
19.92459280187838
 30
0.0
 10
9.987475031970195
 20
19.92448299974156
 30
0.0
 10
10.00077821614032
 20
19.92567916334227
 30
0.0
 10
10.0090182711335
 20
19.92940913867668
 30
0.0
 10
10.01274479699399
 20
19.93109600236318
 30
0.0
  0
SPLINE
  5
19A
330
1F
100
AcDbEntity
  8
0
  6
Continuous
 62
     7
370
    25
100
AcDbSpline
210
0.0
220
0.0
230
1.0
 70
     8
 71
     3
 72
    11
 73
     7
 74
     0
 42
0.00000001
 43
0.00000001
 40
0.0
 40
0.0
 40
0.0
 40
0.0
 40
0.2384522827219887
 40
0.5004086139391954
 40
0.7323128910338119
 40
1.0
 40
1.0
 40
1.0
 40
1.0
 10
9.841360981410787
 20
20.14734451120934
 30
0.0
 10
9.846194254260743
 20
20.14964639554282
 30
0.0
 10
9.856337211753234
 20
20.15447705908529
 30
0.0
 10
9.872645042244493
 20
20.15722649187371
 30
0.0
 10
9.889681118116302
 20
20.15801990621836
 30
0.0
 10
9.900801550953048
 20
20.1567772075614
 30
0.0
 10
9.906760013407721
 20
20.15611135458619
 30
0.0
  0
SPLINE
  5
19B
330
1F
100
AcDbEntity
  8
0
  6
Continuous
 62
     7
370
    25
100
AcDbSpline
210
0.0
220
0.0
230
1.0
 70
     8
 71
     3
 72
     9
 73
     5
 74
     0
 42
0.00000001
 43
0.00000001
 40
0.0
 40
0.0
 40
0.0
 40
0.0
 40
0.5998371471453281
 40
1.0
 40
1.0
 40
1.0
 40
1.0
 10
9.986196421336325
 20
20.12418807794159
 30
0.0
 10
9.985914664625223
 20
20.13186184062715
 30
0.0
 10
9.985444942614098
 20
20.1446549174182
 30
0.0
 10
9.979888073403636
 20
20.15610754171237
 30
0.0
 10
9.97766442076744
 20
20.16069045652259
 30
0.0
  0
SPLINE
  5
19C
330
1F
100
AcDbEntity
  8
0
  6
Continuous
 62
     7
370
    25
100
AcDbSpline
210
0.0
220
0.0
230
1.0
 70
     8
 71
     3
 72
     9
 73
     5
 74
     0
 42
0.00000001
 43
0.00000001
 40
0.0
 40
0.0
 40
0.0
 40
0.0
 40
0.5793588064192425
 40
1.0
 40
1.0
 40
1.0
 40
1.0
 10
9.866409108067867
 20
20.04669555205153
 30
0.0
 10
9.861246354332089
 20
20.04575570389641
 30
0.0
 10
9.85233520345533
 20
20.04413348266717
 30
0.0
 10
9.843903270798751
 20
20.04084950973214
 30
0.0
 10
9.840356452581894
 20
20.03946813543706
 30
0.0
  0
SPLINE
  5
19D
330
1F
100
AcDbEntity
  8
0
  6
Continuous
 62
     7
370
    25
100
AcDbSpline
210
0.0
220
0.0
230
1.0
 70
     8
 71
     3
 72
     9
 73
     5
 74
     0
 42
0.00000001
 43
0.00000001
 40
0.0
 40
0.0
 40
0.0
 40
0.0
 40
0.5701777210889495
 40
1.0
 40
1.0
 40
1.0
 40
1.0
 10
9.824570942680838
 20
20.06891268778123
 30
0.0
 10
9.818917709165676
 20
20.06704371761466
 30
0.0
 10
9.809002846998903
 20
20.06376584459815
 30
0.0
 10
9.800264965622924
 20
20.05807711575849
 30
0.0
 10
9.79650922953705
 20
20.05563197336452
 30
0.0
  0
SPLINE
  5
19E
330
1F
100
AcDbEntity
  8
0
  6
Continuous
 62
     7
370
    25
100
AcDbSpline
210
0.0
220
0.0
230
1.0
 70
     8
 71
     3
 72
     9
 73
     5
 74
     0
 42
0.00000001
 43
0.00000001
 40
0.0
 40
0.0
 40
0.0
 40
0.0
 40
0.5486522687284896
 40
1.0
 40
1.0
 40
1.0
 40
1.0
 10
9.955121121705897
 20
20.18245097597685
 30
0.0
 10
9.949628814410103
 20
20.18507624814843
 30
0.0
 10
9.939618271104553
 20
20.18986119541142
 30
0.0
 10
9.928708843696976
 20
20.19181165488029
 30
0.0
 10
9.923784898387094
 20
20.1926919903365
 30
0.0
  0
SPLINE
  5
19F
330
1F
100
AcDbEntity
  8
0
  6
Continuous
 62
     7
370
    25
100
AcDbSpline
210
0.0
220
0.0
230
1.0
 70
     8
 71
     3
 72
    11
 73
     7
 74
     0
 42
0.00000001
 43
0.00000001
 40
0.0
 40
0.0
 40
0.0
 40
0.0
 40
0.3245511965071188
 40
0.6026968060639403
 40
0.8025589869529727
 40
1.0
 40
1.0
 40
1.0
 40
1.0
 10
9.82181827988254
 20
20.10850693371832
 30
0.0
 10
9.822284657563902
 20
20.11341185499723
 30
0.0
 10
9.823150728439623
 20
20.12252037291553
 30
0.0
 10
9.82767510389061
 20
20.13395591228972
 30
0.0
 10
9.83384887930278
 20
20.14229809965359
 30
0.0
 10
9.838867141146512
 20
20.14566922190324
 30
0.0
 10
9.841360981410787
 20
20.14734451120934
 30
0.0
  0
SPLINE
  5
1A0
330
1F
100
AcDbEntity
  8
0
  6
Continuous
 62
     7
370
    25
100
AcDbSpline
210
0.0
220
0.0
230
1.0
 70
     8
 71
     3
 72
     9
 73
     5
 74
     0
 42
0.00000001
 43
0.00000001
 40
0.0
 40
0.0
 40
0.0
 40
0.0
 40
0.5434172675489259
 40
0.9999999999999999
 40
0.9999999999999999
 40
0.9999999999999999
 40
0.9999999999999999
 10
9.794252286910426
 20
19.941128285319
 30
0.0
 10
9.798882829785416
 20
19.93815467432552
 30
0.0
 10
9.807403984985138
 20
19.93268261598095
 30
0.0
 10
9.817120818017472
 20
19.92987370217478
 30
0.0
 10
9.821557356194148
 20
19.92859120063395
 30
0.0
  0
SPLINE
  5
1A1
330
1F
100
AcDbEntity
  8
0
  6
Continuous
 62
     7
370
    25
100
AcDbSpline
210
0.0
220
0.0
230
1.0
 70
     8
 71
     3
 72
     9
 73
     5
 74
     0
 42
0.00000001
 43
0.00000001
 40
0.0
 40
0.0
 40
0.0
 40
0.0
 40
0.5298952569125451
 40
0.9999999999999999
 40
0.9999999999999999
 40
0.9999999999999999
 40
0.9999999999999999
 10
9.91803163805548
 20
20.08670726079631
 30
0.0
 10
9.913167357177603
 20
20.08554788346555
 30
0.0
 10
9.903987654558225
 20
20.0833599466693
 30
0.0
 10
9.89462108068492
 20
20.08222034046421
 30
0.0
 10
9.890217809880603
 20
20.08168460618196
 30
0.0
  0
SPLINE
  5
1A2
330
1F
100
AcDbEntity
  8
0
  6
Continuous
 62
     7
370
    25
100
AcDbSpline
210
0.0
220
0.0
230
1.0
 70
     8
 71
     3
 72
     9
 73
     5
 74
     0
 42
0.00000001
 43
0.00000001
 40
0.0
 40
0.0
 40
0.0
 40
0.0
 40
0.5634395168704215
 40
1.0
 40
1.0
 40
1.0
 40
1.0
 10
9.818556808426955
 20
19.98236631749964
 30
0.0
 10
9.820265385381951
 20
19.97981538718266
 30
0.0
 10
9.823297790642567
 20
19.97528796189459
 30
0.0
 10
9.827671262930725
 20
19.9720602229769
 30
0.0
 10
9.829580548105799
 20
19.97065111971558
 30
0.0
  0
SPLINE
  5
1A3
330
1F
100
AcDbEntity
  8
0
  6
Continuous
 62
     7
370
    25
100
AcDbSpline
210
0.0
220
0.0
230
1.0
 70
     8
 71
     3
 72
     9
 73
     5
 74
     0
 42
0.00000001
 43
0.00000001
 40
0.0
 40
0.0
 40
0.0
 40
0.0
 40
0.5874425447068498
 40
1.0
 40
1.0
 40
1.0
 40
1.0
 10
9.939074688116468
 20
20.0013089381189
 30
0.0
 10
9.940523376510653
 20
20.0049474929542
 30
0.0
 10
9.942989470271208
 20
20.01114138351949
 30
0.0
 10
9.943413596805916
 20
20.01777551109286
 30
0.0
 10
9.943588573369798
 20
20.02051246988262
 30
0.0
  0
SPLINE
  5
1A4
330
1F
100
AcDbEntity
  8
0
  6
Continuous
 62
     7
370
    25
100
AcDbSpline
210
0.0
220
0.0
230
1.0
 70
     8
 71
     3
 72
     9
 73
     5
 74
     0
 42
0.00000001
 43
0.00000001
 40
0.0
 40
0.0
 40
0.0
 40
0.0
 40
0.5702086699681534
 40
1.0
 40
1.0
 40
1.0
 40
1.0
 10
9.847623000633513
 20
20.19069597218176
 30
0.0
 10
9.840710579767649
 20
20.1887538082448
 30
0.0
 10
9.828587963557244
 20
20.18534775000812
 30
0.0
 10
9.817895007900647
 20
20.17874133716159
 30
0.0
 10
9.81329926826703
 20
20.17590195819755
 30
0.0
  0
SPLINE
  5
1A5
330
1F
100
AcDbEntity
  8
0
  6
Continuous
 62
     7
370
    25
100
AcDbSpline
210
0.0
220
0.0
230
1.0
 70
     8
 71
     3
 72
     9
 73
     5
 74
     0
 42
0.00000001
 43
0.00000001
 40
0.0
 40
0.0
 40
0.0
 40
0.0
 40
0.562675659758634
 40
0.9999999999999999
 40
0.9999999999999999
 40
0.9999999999999999
 40
0.9999999999999999
 10
9.856885617389544
 20
20.07642710541042
 30
0.0
 10
9.85077424811887
 20
20.07523178202211
 30
0.0
 10
9.83991298343702
 20
20.07310742606751
 30
0.0
 10
9.82923895508681
 20
20.07018899063241
 30
0.0
 10
9.824570942680838
 20
20.06891268778123
 30
0.0
  0
SPLINE
  5
1A6
330
1F
100
AcDbEntity
  8
0
  6
Continuous
 62
     7
370
    25
100
AcDbSpline
210
0.0
220
0.0
230
1.0
 70
     8
 71
     3
 72
    10
 73
     6
 74
     0
 42
0.00000001
 43
0.00000001
 40
0.0
 40
0.0
 40
0.0
 40
0.0
 40
0.2368627050430031
 40
0.5161858454676761
 40
1.0
 40
1.0
 40
1.0
 40
1.0
 10
9.943588573369803
 20
20.06390307188127
 30
0.0
 10
9.940149992670566
 20
20.06182200462707
 30
0.0
 10
9.932656425098918
 20
20.05728681425217
 30
0.0
 10
9.915989768028728
 20
20.05365933458377
 30
0.0
 10
9.903283188536628
 20
20.05184061872706
 30
0.0
 10
9.89522746507167
 20
20.05068758836102
 30
0.0
  0
SPLINE
  5
1A7
330
1F
100
AcDbEntity
  8
0
  6
Continuous
 62
     7
370
    25
100
AcDbSpline
210
0.0
220
0.0
230
1.0
 70
     8
 71
     3
 72
     9
 73
     5
 74
     0
 42
0.00000001
 43
0.00000001
 40
0.0
 40
0.0
 40
0.0
 40
0.0
 40
0.5432306318228769
 40
1.0
 40
1.0
 40
1.0
 40
1.0
 10
9.829580548105799
 20
19.97065111971558
 30
0.0
 10
9.832284804999626
 20
19.96909158525863
 30
0.0
 10
9.837262905893441
 20
19.96622073379042
 30
0.0
 10
9.84282531837304
 20
19.96480220825011
 30
0.0
 10
9.845366058006887
 20
19.96415426923533
 30
0.0
  0
SPLINE
  5
1A8
330
1F
100
AcDbEntity
  8
0
  6
Continuous
 62
     7
370
    25
100
AcDbSpline
210
0.0
220
0.0
230
1.0
 70
     8
 71
     3
 72
     9
 73
     5
 74
     0
 42
0.00000001
 43
0.00000001
 40
0.0
 40
0.0
 40
0.0
 40
0.0
 40
0.524740022808408
 40
1.0
 40
1.0
 40
1.0
 40
1.0
 10
9.923784898387094
 20
20.1926919903365
 30
0.0
 10
9.910407678991232
 20
20.19414707600762
 30
0.0
 10
9.884914637076372
 20
20.19692004091954
 30
0.0
 10
9.859636627085314
 20
20.19270107691726
 30
0.0
 10
9.847623000633513
 20
20.19069597218176
 30
0.0
  0
SPLINE
  5
1A9
330
1F
100
AcDbEntity
  8
0
  6
Continuous
 62
     7
370
    25
100
AcDbSpline
210
0.0
220
0.0
230
1.0
 70
     8
 71
     3
 72
     9
 73
     5
 74
     0
 42
0.00000001
 43
0.00000001
 40
0.0
 40
0.0
 40
0.0
 40
0.0
 40
0.5780216235237622
 40
1.0
 40
1.0
 40
1.0
 40
1.0
 10
9.925050350904355
 20
19.98236631749962
 30
0.0
 10
9.928304006559522
 20
19.98562155927015
 30
0.0
 10
9.933932958008313
 20
19.9912532547605
 30
0.0
 10
9.937548856951095
 20
19.99832486957881
 30
0.0
 10
9.939074688116472
 20
20.0013089381189
 30
0.0
  0
SPLINE
  5
1AA
330
1F
100
AcDbEntity
  8
0
  6
Continuous
 62
     7
370
    25
100
AcDbSpline
210
0.0
220
0.0
230
1.0
 70
     8
 71
     3
 72
    10
 73
     6
 74
     0
 42
0.00000001
 43
0.00000001
 40
0.0
 40
0.0
 40
0.0
 40
0.0
 40
0.2180499606615345
 40
0.4717217995800978
 40
1.0
 40
1.0
 40
1.0
 40
1.0
 10
9.821557356194148
 20
19.92859120063395
 30
0.0
 10
9.82760926592501
 20
19.92735677720872
 30
0.0
 10
9.840701759684135
 20
19.92468626794641
 30
0.0
 10
9.869263653685543
 20
19.92375158795467
 30
0.0
 10
9.890746262918134
 20
19.92978536429588
 30
0.0
 10
9.905259714641108
 20
19.93386172767834
 30
0.0
  0
SPLINE
  5
1AB
330
1F
100
AcDbEntity
  8
0
  6
Continuous
 62
     7
370
    25
100
AcDbSpline
210
0.0
220
0.0
230
1.0
 70
     8
 71
     3
 72
     9
 73
     5
 74
     0
 42
0.00000001
 43
0.00000001
 40
0.0
 40
0.0
 40
0.0
 40
0.0
 40
0.5451588152029345
 40
1.0
 40
1.0
 40
1.0
 40
1.0
 10
9.890217809880603
 20
20.08168460618196
 30
0.0
 10
9.884130788765598
 20
20.08091649434362
 30
0.0
 10
9.872965196381777
 20
20.07950752540297
 30
0.0
 10
9.861912732951224
 20
20.07739016714782
 30
0.0
 10
9.856885617389544
 20
20.07642710541042
 30
0.0
  0
SPLINE
  5
1AC
330
1F
100
AcDbEntity
  8
0
  6
Continuous
 62
     7
370
    25
100
AcDbSpline
210
0.0
220
0.0
230
1.0
 70
     8
 71
     3
 72
     9
 73
     5
 74
     0
 42
0.00000001
 43
0.00000001
 40
0.0
 40
0.0
 40
0.0
 40
0.0
 40
0.5476778014878269
 40
1.0
 40
1.0
 40
1.0
 40
1.0
 10
9.905259714641108
 20
19.93386172767834
 30
0.0
 10
9.91374235149554
 20
19.9380432691135
 30
0.0
 10
9.929230722270079
 20
19.94567830822553
 30
0.0
 10
9.940841526640089
 20
19.95840895846545
 30
0.0
 10
9.946093351199226
 20
19.96416731417047
 30
0.0
  0
SPLINE
  5
1AD
330
1F
100
AcDbEntity
  8
0
  6
Continuous
 62
     7
370
    25
100
AcDbSpline
210
0.0
220
0.0
230
1.0
 70
     8
 71
     3
 72
     9
 73
     5
 74
     0
 42
0.00000001
 43
0.00000001
 40
0.0
 40
0.0
 40
0.0
 40
0.0
 40
0.5681470810217674
 40
0.9999999999999999
 40
0.9999999999999999
 40
0.9999999999999999
 40
0.9999999999999999
 10
9.77596194941385
 20
19.96342369688035
 30
0.0
 10
9.7786958899483
 20
19.9585818721225
 30
0.0
 10
9.783507919483913
 20
19.95005973952765
 30
0.0
 10
9.791011740081759
 20
19.94382204982484
 30
0.0
 10
9.794252286910426
 20
19.941128285319
 30
0.0
  0
SPLINE
  5
1AE
330
1F
100
AcDbEntity
  8
0
  6
Continuous
 62
     7
370
    25
100
AcDbSpline
210
0.0
220
0.0
230
1.0
 70
     8
 71
     3
 72
    10
 73
     6
 74
     0
 42
0.00000001
 43
0.00000001
 40
0.0
 40
0.0
 40
0.0
 40
0.0
 40
0.2698648447693014
 40
0.5858087575089685
 40
0.9999999999999999
 40
0.9999999999999999
 40
0.9999999999999999
 40
0.9999999999999999
 10
9.776718643039983
 20
20.03282778444946
 30
0.0
 10
9.774391461307165
 20
20.02683726782929
 30
0.0
 10
9.76933973461573
 20
20.01383336174032
 30
0.0
 10
9.76803585681557
 20
19.98956961260325
 30
0.0
 10
9.77309308424748
 20
19.97288726369213
 30
0.0
 10
9.77596194941385
 20
19.96342369688035
 30
0.0
  0
SPLINE
  5
1AF
330
1F
100
AcDbEntity
  8
0
  6
Continuous
 62
     7
370
    25
100
AcDbSpline
210
0.0
220
0.0
230
1.0
 70
     8
 71
     3
 72
     9
 73
     5
 74
     0
 42
0.00000001
 43
0.00000001
 40
0.0
 40
0.0
 40
0.0
 40
0.0
 40
0.5453042424339064
 40
1.0
 40
1.0
 40
1.0
 40
1.0
 10
10.13847846308138
 20
20.1225377972239
 30
0.0
 10
10.143061705055
 20
20.1272843377254
 30
0.0
 10
10.15146663136398
 20
20.13598872718754
 30
0.0
 10
10.16251016752671
 20
20.14086694974047
 30
0.0
 10
10.16753161656843
 20
20.14308505683976
 30
0.0
  0
SPLINE
  5
1B0
330
1F
100
AcDbEntity
  8
0
  6
Continuous
 62
     7
370
    25
100
AcDbSpline
210
0.0
220
0.0
230
1.0
 70
     8
 71
     3
 72
     9
 73
     5
 74
     0
 42
0.00000001
 43
0.00000001
 40
0.0
 40
0.0
 40
0.0
 40
0.0
 40
0.5246170726495938
 40
1.0
 40
1.0
 40
1.0
 40
1.0
 10
10.16753161656843
 20
20.14308505683976
 30
0.0
 10
10.17499616463676
 20
20.14533397820968
 30
0.0
 10
10.18922472954152
 20
20.1496207646815
 30
0.0
 10
10.20407255290776
 20
20.14994812197968
 30
0.0
 10
10.21113095464437
 20
20.15010374205038
 30
0.0
  0
SPLINE
  5
1B3
330
1F
100
AcDbEntity
  8
0
  6
Continuous
 62
     7
370
    25
100
AcDbSpline
210
0.0
220
0.0
230
1.0
 70
     8
 71
     3
 72
     9
 73
     5
 74
     0
 42
0.00000001
 43
0.00000001
 40
0.0
 40
0.0
 40
0.0
 40
0.0
 40
0.5760001106053931
 40
0.9999999999999999
 40
0.9999999999999999
 40
0.9999999999999999
 40
0.9999999999999999
 10
10.12243197972585
 20
20.08971436406739
 30
0.0
 10
10.12453790151415
 20
20.09651340114033
 30
0.0
 10
10.12819401502788
 20
20.10831728268088
 30
0.0
 10
10.13541624034552
 20
20.11830359984911
 30
0.0
 10
10.13847846308137
 20
20.12253779722389
 30
0.0
  0
SPLINE
  5
1B6
330
1F
100
AcDbEntity
  8
0
  6
Continuous
 62
     7
370
    25
100
AcDbSpline
210
0.0
220
0.0
230
1.0
 70
     8
 71
     3
 72
     9
 73
     5
 74
     0
 42
0.00000001
 43
0.00000001
 40
0.0
 40
0.0
 40
0.0
 40
0.0
 40
0.5881100788942838
 40
1.0
 40
1.0
 40
1.0
 40
1.0
 10
10.11742237430085
 20
20.04537141337476
 30
0.0
 10
10.11761879659612
 20
20.0541620157109
 30
0.0
 10
10.11795278559294
 20
20.06910922143244
 30
0.0
 10
10.12112526672334
 20
20.0837032363956
 30
0.0
 10
10.12243197972585
 20
20.08971436406739
 30
0.0
  0
SPLINE
  5
1B7
330
1F
100
AcDbEntity
  8
0
  6
Continuous
 62
     7
370
    25
100
AcDbSpline
210
0.0
220
0.0
230
1.0
 70
     8
 71
     3
 72
     9
 73
     5
 74
     0
 42
0.00000001
 43
0.00000001
 40
0.0
 40
0.0
 40
0.0
 40
0.0
 40
0.5253540214883695
 40
1.0
 40
1.0
 40
1.0
 40
1.0
 10
10.15400304929402
 20
20.18116596588474
 30
0.0
 10
10.1457545967529
 20
20.17427913145069
 30
0.0
 10
10.13005384601391
 20
20.16117019128395
 30
0.0
 10
10.12047071832121
 20
20.14312918799425
 30
0.0
 10
10.1159221253003
 20
20.13456609833448
 30
0.0
  0
SPLINE
  5
1B9
330
1F
100
AcDbEntity
  8
0
  6
Continuous
 62
     7
370
    25
100
AcDbSpline
210
0.0
220
0.0
230
1.0
 70
     8
 71
     3
 72
     9
 73
     5
 74
     0
 42
0.00000001
 43
0.00000001
 40
0.0
 40
0.0
 40
0.0
 40
0.0
 40
0.5906989681010418
 40
1.0
 40
1.0
 40
1.0
 40
1.0
 10
10.21113095464437
 20
20.19520333630599
 30
0.0
 10
10.1991870820813
 20
20.19495277936726
 30
0.0
 10
10.17896718462412
 20
20.19452860910077
 30
0.0
 10
10.16125334296428
 20
20.18504685686079
 30
0.0
 10
10.15400304929402
 20
20.18116596588474
 30
0.0
  0
SPLINE
  5
1BE
330
1F
100
AcDbEntity
  8
0
  6
Continuous
 62
     7
370
    25
100
AcDbSpline
210
0.0
220
0.0
230
1.0
 70
     8
 71
     3
 72
     9
 73
     5
 74
     0
 42
0.00000001
 43
0.00000001
 40
0.0
 40
0.0
 40
0.0
 40
0.0
 40
0.590698968100925
 40
1.0
 40
1.0
 40
1.0
 40
1.0
 10
10.21113095464437
 20
20.19520333630599
 30
0.0
 10
10.1991870820813
 20
20.19495277936728
 30
0.0
 10
10.17896718462412
 20
20.19452860910077
 30
0.0
 10
10.16125334296428
 20
20.18504685686078
 30
0.0
 10
10.15400304929401
 20
20.18116596588473
 30
0.0
  0
SPLINE
  5
1C0
330
1F
100
AcDbEntity
  8
0
  6
Continuous
 62
     7
370
    25
100
AcDbSpline
210
0.0
220
0.0
230
1.0
 70
     8
 71
     3
 72
     9
 73
     5
 74
     0
 42
0.00000001
 43
0.00000001
 40
0.0
 40
0.0
 40
0.0
 40
0.0
 40
0.5253540214882778
 40
1.0
 40
1.0
 40
1.0
 40
1.0
 10
10.15400304929401
 20
20.18116596588473
 30
0.0
 10
10.1457545967529
 20
20.17427913145069
 30
0.0
 10
10.13005384601391
 20
20.16117019128394
 30
0.0
 10
10.1204707183212
 20
20.14312918799424
 30
0.0
 10
10.11592212530029
 20
20.13456609833447
 30
0.0
  0
SPLINE
  5
1C1
330
1F
100
AcDbEntity
  8
0
  6
Continuous
 62
     7
370
    25
100
AcDbSpline
210
0.0
220
0.0
230
1.0
 70
     8
 71
     3
 72
     9
 73
     5
 74
     0
 42
0.00000001
 43
0.00000001
 40
0.0
 40
0.0
 40
0.0
 40
0.0
 40
0.5881100788943283
 40
0.9999999999999999
 40
0.9999999999999999
 40
0.9999999999999999
 40
0.9999999999999999
 10
10.11742237430085
 20
20.04537141337476
 30
0.0
 10
10.11761879659612
 20
20.0541620157109
 30
0.0
 10
10.11795278559294
 20
20.06910922143243
 30
0.0
 10
10.12112526672335
 20
20.0837032363956
 30
0.0
 10
10.12243197972586
 20
20.08971436406739
 30
0.0
  0
SPLINE
  5
1C4
330
1F
100
AcDbEntity
  8
0
  6
Continuous
 62
     7
370
    25
100
AcDbSpline
210
0.0
220
0.0
230
1.0
 70
     8
 71
     3
 72
     9
 73
     5
 74
     0
 42
0.00000001
 43
0.00000001
 40
0.0
 40
0.0
 40
0.0
 40
0.0
 40
0.5760001106052046
 40
1.0
 40
1.0
 40
1.0
 40
1.0
 10
10.12243197972586
 20
20.08971436406739
 30
0.0
 10
10.12453790151415
 20
20.09651340114033
 30
0.0
 10
10.12819401502789
 20
20.10831728268089
 30
0.0
 10
10.13541624034551
 20
20.11830359984911
 30
0.0
 10
10.13847846308137
 20
20.1225377972239
 30
0.0
  0
SPLINE
  5
1C7
330
1F
100
AcDbEntity
  8
0
  6
Continuous
 62
     7
370
    25
100
AcDbSpline
210
0.0
220
0.0
230
1.0
 70
     8
 71
     3
 72
     9
 73
     5
 74
     0
 42
0.00000001
 43
0.00000001
 40
0.0
 40
0.0
 40
0.0
 40
0.0
 40
0.5246170726496264
 40
1.0
 40
1.0
 40
1.0
 40
1.0
 10
10.16753161656842
 20
20.14308505683976
 30
0.0
 10
10.17499616463676
 20
20.14533397820968
 30
0.0
 10
10.18922472954152
 20
20.1496207646815
 30
0.0
 10
10.20407255290776
 20
20.14994812197968
 30
0.0
 10
10.21113095464437
 20
20.15010374205038
 30
0.0
  0
SPLINE
  5
1C8
330
1F
100
AcDbEntity
  8
0
  6
Continuous
 62
     7
370
    25
100
AcDbSpline
210
0.0
220
0.0
230
1.0
 70
     8
 71
     3
 72
     9
 73
     5
 74
     0
 42
0.00000001
 43
0.00000001
 40
0.0
 40
0.0
 40
0.0
 40
0.0
 40
0.5453042424338184
 40
0.9999999999999999
 40
0.9999999999999999
 40
0.9999999999999999
 40
0.9999999999999999
 10
10.13847846308137
 20
20.1225377972239
 30
0.0
 10
10.143061705055
 20
20.1272843377254
 30
0.0
 10
10.15146663136398
 20
20.13598872718753
 30
0.0
 10
10.1625101675267
 20
20.14086694974048
 30
0.0
 10
10.16753161656842
 20
20.14308505683976
 30
0.0
  0
SPLINE
  5
1CA
330
1F
100
AcDbEntity
  8
0
  6
Continuous
 62
     7
370
    25
100
AcDbSpline
210
0.0
220
0.0
230
1.0
 70
     8
 71
     3
 72
    11
 73
     7
 74
     0
 42
0.00000001
 43
0.00000001
 40
0.0
 40
0.0
 40
0.0
 40
0.0
 40
0.2391561379196001
 40
0.526097487062076
 40
0.7737156840862061
 40
1.0
 40
1.0
 40
1.0
 40
1.0
 10
10.39623896806057
 20
19.96769101118106
 30
0.0
 10
10.39040730733859
 20
19.96581677698574
 30
0.0
 10
10.37757877582807
 20
19.96169382238003
 30
0.0
 10
10.35771950005949
 20
19.96111069478624
 30
0.0
 10
10.338046735053
 20
19.96447715478682
 30
0.0
 10
10.3284274744786
 20
19.97207383253485
 30
0.0
 10
10.32383436146643
 20
19.9757011798911
 30
0.0
  0
SPLINE
  5
1CB
330
1F
100
AcDbEntity
  8
0
  6
Continuous
 62
     7
370
    25
100
AcDbSpline
210
0.0
220
0.0
230
1.0
 70
     8
 71
     3
 72
     9
 73
     5
 74
     0
 42
0.00000001
 43
0.00000001
 40
0.0
 40
0.0
 40
0.0
 40
0.0
 40
0.5750074691248753
 40
1.0
 40
1.0
 40
1.0
 40
1.0
 10
10.4390947507621
 20
20.04286136132352
 30
0.0
 10
10.43887708066179
 20
20.0365536387669
 30
0.0
 10
10.43849852888291
 20
20.02558382898995
 30
0.0
 10
10.43556613679093
 20
20.01502226504068
 30
0.0
 10
10.43431989205425
 20
20.01053367924787
 30
0.0
  0
SPLINE
  5
1CE
330
1F
100
AcDbEntity
  8
0
  6
Continuous
 62
     7
370
    25
100
AcDbSpline
210
0.0
220
0.0
230
1.0
 70
     8
 71
     3
 72
    10
 73
     6
 74
     0
 42
0.00000001
 43
0.00000001
 40
0.0
 40
0.0
 40
0.0
 40
0.0
 40
0.2377889145100053
 40
0.5306050116272591
 40
1.0
 40
1.0
 40
1.0
 40
1.0
 10
10.3138150510843
 20
19.93135823308643
 30
0.0
 10
10.32100318129191
 20
19.92928055548275
 30
0.0
 10
10.33704286051854
 20
19.92464440097014
 30
0.0
 10
10.3690249613644
 20
19.92316121778306
 30
0.0
 10
10.39191431618446
 20
19.93101960534645
 30
0.0
 10
10.40601034370775
 20
19.93585906230157
 30
0.0
  0
SPLINE
  5
1CF
330
1F
100
AcDbEntity
  8
0
  6
Continuous
 62
     7
370
    25
100
AcDbSpline
210
0.0
220
0.0
230
1.0
 70
     8
 71
     3
 72
     9
 73
     5
 74
     0
 42
0.00000001
 43
0.00000001
 40
0.0
 40
0.0
 40
0.0
 40
0.0
 40
0.5513517731636204
 40
1.0
 40
1.0
 40
1.0
 40
1.0
 10
10.42006080812498
 20
19.98472892508123
 30
0.0
 10
10.41620294416342
 20
19.98085156456604
 30
0.0
 10
10.40920584331177
 20
19.97381910234516
 30
0.0
 10
10.40025482607309
 20
19.96958888892924
 30
0.0
 10
10.39623896806057
 20
19.96769101118105
 30
0.0
  0
SPLINE
  5
1D0
330
1F
100
AcDbEntity
  8
0
  6
Continuous
 62
     7
370
    25
100
AcDbSpline
210
0.0
220
0.0
230
1.0
 70
     8
 71
     3
 72
     9
 73
     5
 74
     0
 42
0.00000001
 43
0.00000001
 40
0.0
 40
0.0
 40
0.0
 40
0.0
 40
0.544365871337786
 40
1.0
 40
1.0
 40
1.0
 40
1.0
 10
10.28624910787829
 20
19.95064004456979
 30
0.0
 10
10.29062554643591
 20
19.94622552588312
 30
0.0
 10
10.29866506321691
 20
19.93811605591245
 30
0.0
 10
10.30907288999775
 20
19.93347352748243
 30
0.0
 10
10.3138150510843
 20
19.93135823308642
 30
0.0
  0
SPLINE
  5
1D1
330
1F
100
AcDbEntity
  8
0
  6
Continuous
 62
     7
370
    25
100
AcDbSpline
210
0.0
220
0.0
230
1.0
 70
     8
 71
     3
 72
     9
 73
     5
 74
     0
 42
0.00000001
 43
0.00000001
 40
0.0
 40
0.0
 40
0.0
 40
0.0
 40
0.569970664480737
 40
1.0
 40
1.0
 40
1.0
 40
1.0
 10
10.2714681765722
 20
19.98046292647139
 30
0.0
 10
10.27333697684929
 20
19.97431196219026
 30
0.0
 10
10.27661574257102
 20
19.96352024137996
 30
0.0
 10
10.28335222347249
 20
19.95451329551511
 30
0.0
 10
10.28624910787829
 20
19.95064004456979
 30
0.0
  0
SPLINE
  5
1D2
330
1F
100
AcDbEntity
  8
0
  6
Continuous
 62
     7
370
    25
100
AcDbSpline
210
0.0
220
0.0
230
1.0
 70
     8
 71
     3
 72
     9
 73
     5
 74
     0
 42
0.00000001
 43
0.00000001
 40
0.0
 40
0.0
 40
0.0
 40
0.0
 40
0.5312373084040275
 40
1.0
 40
1.0
 40
1.0
 40
1.0
 10
10.32383436146643
 20
19.9757011798911
 30
0.0
 10
10.31933227916661
 20
19.9817301125798
 30
0.0
 10
10.31085756884678
 20
19.99307896288328
 30
0.0
 10
10.3101354419272
 20
20.00717459706786
 30
0.0
 10
10.30979693576869
 20
20.01378210448798
 30
0.0
  0
SPLINE
  5
1D4
330
1F
100
AcDbEntity
  8
0
  6
Continuous
 62
     7
370
    25
100
AcDbSpline
210
0.0
220
0.0
230
1.0
 70
     8
 71
     3
 72
     9
 73
     5
 74
     0
 42
0.00000001
 43
0.00000001
 40
0.0
 40
0.0
 40
0.0
 40
0.0
 40
0.567797612421262
 40
1.0
 40
1.0
 40
1.0
 40
1.0
 10
10.43431989205425
 20
20.01053367924787
 30
0.0
 10
10.43232678661116
 20
20.00524699674224
 30
0.0
 10
10.42881654740007
 20
19.99593613951075
 30
0.0
 10
10.42270306836176
 20
19.98811097839754
 30
0.0
 10
10.42006080812498
 20
19.98472892508123
 30
0.0
  0
SPLINE
  5
1D8
330
1F
100
AcDbEntity
  8
0
  6
Continuous
 62
     7
370
    25
100
AcDbSpline
210
0.0
220
0.0
230
1.0
 70
     8
 71
     3
 72
     9
 73
     5
 74
     0
 42
0.00000001
 43
0.00000001
 40
0.0
 40
0.0
 40
0.0
 40
0.0
 40
0.5806730171771619
 40
1.0
 40
1.0
 40
1.0
 40
1.0
 10
10.26720212652165
 20
20.0188047653231
 30
0.0
 10
10.26738511467485
 20
20.01130547388998
 30
0.0
 10
10.26770024582059
 20
19.99839064710918
 30
0.0
 10
10.27035497640573
 20
19.98575950512798
 30
0.0
 10
10.2714681765722
 20
19.98046292647139
 30
0.0
  0
SPLINE
  5
1D9
330
1F
100
AcDbEntity
  8
0
  6
Continuous
 62
     7
370
    25
100
AcDbSpline
210
0.0
220
0.0
230
1.0
 70
     8
 71
     3
 72
     9
 73
     5
 74
     0
 42
0.00000001
 43
0.00000001
 40
0.0
 40
0.0
 40
0.0
 40
0.0
 40
0.5399892180388879
 40
1.0
 40
1.0
 40
1.0
 40
1.0
 10
10.40601034370775
 20
19.93585906230157
 30
0.0
 10
10.41358301952536
 20
19.94092878232214
 30
0.0
 10
10.42760677326829
 20
19.95031734018813
 30
0.0
 10
10.4365027531164
 20
19.96461173157932
 30
0.0
 10
10.44059499976265
 20
19.97118730574084
 30
0.0
  0
SPLINE
  5
1DE
330
1F
100
AcDbEntity
  8
0
  6
Continuous
 62
     7
370
    25
100
AcDbSpline
210
0.0
220
0.0
230
1.0
 70
     8
 71
     3
 72
     9
 73
     5
 74
     0
 42
0.00000001
 43
0.00000001
 40
0.0
 40
0.0
 40
0.0
 40
0.0
 40
0.5399892180388309
 40
1.0
 40
1.0
 40
1.0
 40
1.0
 10
10.40601034370775
 20
19.93585906230157
 30
0.0
 10
10.41358301952536
 20
19.94092878232214
 30
0.0
 10
10.42760677326829
 20
19.95031734018814
 30
0.0
 10
10.43650275311641
 20
19.96461173157932
 30
0.0
 10
10.44059499976265
 20
19.97118730574084
 30
0.0
  0
SPLINE
  5
1DF
330
1F
100
AcDbEntity
  8
0
  6
Continuous
 62
     7
370
    25
100
AcDbSpline
210
0.0
220
0.0
230
1.0
 70
     8
 71
     3
 72
     9
 73
     5
 74
     0
 42
0.00000001
 43
0.00000001
 40
0.0
 40
0.0
 40
0.0
 40
0.0
 40
0.5806730171770293
 40
1.0
 40
1.0
 40
1.0
 40
1.0
 10
10.26720212652167
 20
20.0188047653231
 30
0.0
 10
10.26738511467486
 20
20.01130547388998
 30
0.0
 10
10.26770024582059
 20
19.99839064710919
 30
0.0
 10
10.27035497640572
 20
19.98575950512799
 30
0.0
 10
10.2714681765722
 20
19.9804629264714
 30
0.0
  0
SPLINE
  5
1E3
330
1F
100
AcDbEntity
  8
0
  6
Continuous
 62
     7
370
    25
100
AcDbSpline
210
0.0
220
0.0
230
1.0
 70
     8
 71
     3
 72
     9
 73
     5
 74
     0
 42
0.00000001
 43
0.00000001
 40
0.0
 40
0.0
 40
0.0
 40
0.0
 40
0.5677976124212313
 40
1.0
 40
1.0
 40
1.0
 40
1.0
 10
10.43431989205425
 20
20.01053367924787
 30
0.0
 10
10.43232678661116
 20
20.00524699674223
 30
0.0
 10
10.42881654740007
 20
19.99593613951076
 30
0.0
 10
10.42270306836175
 20
19.98811097839755
 30
0.0
 10
10.42006080812498
 20
19.98472892508124
 30
0.0
  0
SPLINE
  5
1E5
330
1F
100
AcDbEntity
  8
0
  6
Continuous
 62
     7
370
    25
100
AcDbSpline
210
0.0
220
0.0
230
1.0
 70
     8
 71
     3
 72
     9
 73
     5
 74
     0
 42
0.00000001
 43
0.00000001
 40
0.0
 40
0.0
 40
0.0
 40
0.0
 40
0.5312373084039306
 40
1.0
 40
1.0
 40
1.0
 40
1.0
 10
10.32383436146643
 20
19.97570117989111
 30
0.0
 10
10.31933227916662
 20
19.9817301125798
 30
0.0
 10
10.31085756884678
 20
19.99307896288327
 30
0.0
 10
10.31013544192719
 20
20.00717459706787
 30
0.0
 10
10.30979693576869
 20
20.01378210448799
 30
0.0
  0
SPLINE
  5
1E6
330
1F
100
AcDbEntity
  8
0
  6
Continuous
 62
     7
370
    25
100
AcDbSpline
210
0.0
220
0.0
230
1.0
 70
     8
 71
     3
 72
     9
 73
     5
 74
     0
 42
0.00000001
 43
0.00000001
 40
0.0
 40
0.0
 40
0.0
 40
0.0
 40
0.5699706644807264
 40
1.0
 40
1.0
 40
1.0
 40
1.0
 10
10.2714681765722
 20
19.9804629264714
 30
0.0
 10
10.27333697684929
 20
19.97431196219027
 30
0.0
 10
10.27661574257102
 20
19.96352024137997
 30
0.0
 10
10.28335222347249
 20
19.95451329551511
 30
0.0
 10
10.28624910787829
 20
19.95064004456979
 30
0.0
  0
SPLINE
  5
1E7
330
1F
100
AcDbEntity
  8
0
  6
Continuous
 62
     7
370
    25
100
AcDbSpline
210
0.0
220
0.0
230
1.0
 70
     8
 71
     3
 72
     9
 73
     5
 74
     0
 42
0.00000001
 43
0.00000001
 40
0.0
 40
0.0
 40
0.0
 40
0.0
 40
0.5443658713378366
 40
0.9999999999999999
 40
0.9999999999999999
 40
0.9999999999999999
 40
0.9999999999999999
 10
10.28624910787829
 20
19.95064004456979
 30
0.0
 10
10.29062554643591
 20
19.94622552588312
 30
0.0
 10
10.2986650632169
 20
19.93811605591245
 30
0.0
 10
10.30907288999775
 20
19.93347352748246
 30
0.0
 10
10.3138150510843
 20
19.93135823308646
 30
0.0
  0
SPLINE
  5
1E8
330
1F
100
AcDbEntity
  8
0
  6
Continuous
 62
     7
370
    25
100
AcDbSpline
210
0.0
220
0.0
230
1.0
 70
     8
 71
     3
 72
     9
 73
     5
 74
     0
 42
0.00000001
 43
0.00000001
 40
0.0
 40
0.0
 40
0.0
 40
0.0
 40
0.5513517731638128
 40
0.9999999999999999
 40
0.9999999999999999
 40
0.9999999999999999
 40
0.9999999999999999
 10
10.42006080812498
 20
19.98472892508124
 30
0.0
 10
10.41620294416342
 20
19.98085156456604
 30
0.0
 10
10.40920584331178
 20
19.97381910234514
 30
0.0
 10
10.40025482607308
 20
19.96958888892925
 30
0.0
 10
10.39623896806056
 20
19.96769101118107
 30
0.0
  0
SPLINE
  5
1E9
330
1F
100
AcDbEntity
  8
0
  6
Continuous
 62
     7
370
    25
100
AcDbSpline
210
0.0
220
0.0
230
1.0
 70
     8
 71
     3
 72
    10
 73
     6
 74
     0
 42
0.00000001
 43
0.00000001
 40
0.0
 40
0.0
 40
0.0
 40
0.0
 40
0.2377889145100856
 40
0.530605011627412
 40
1.0
 40
1.0
 40
1.0
 40
1.0
 10
10.3138150510843
 20
19.93135823308646
 30
0.0
 10
10.32100318129191
 20
19.92928055548277
 30
0.0
 10
10.33704286051855
 20
19.92464440097015
 30
0.0
 10
10.3690249613644
 20
19.92316121778304
 30
0.0
 10
10.39191431618446
 20
19.93101960534644
 30
0.0
 10
10.40601034370775
 20
19.93585906230157
 30
0.0
  0
SPLINE
  5
1ED
330
1F
100
AcDbEntity
  8
0
  6
Continuous
 62
     7
370
    25
100
AcDbSpline
210
0.0
220
0.0
230
1.0
 70
     8
 71
     3
 72
    11
 73
     7
 74
     0
 42
0.00000001
 43
0.00000001
 40
0.0
 40
0.0
 40
0.0
 40
0.0
 40
0.2391561379194616
 40
0.5260974870620773
 40
0.7737156840861861
 40
1.0
 40
1.0
 40
1.0
 40
1.0
 10
10.39623896806056
 20
19.96769101118107
 30
0.0
 10
10.39040730733858
 20
19.96581677698576
 30
0.0
 10
10.37757877582807
 20
19.96169382238002
 30
0.0
 10
10.35771950005949
 20
19.96111069478624
 30
0.0
 10
10.33804673505301
 20
19.96447715478682
 30
0.0
 10
10.3284274744786
 20
19.97207383253485
 30
0.0
 10
10.32383436146643
 20
19.97570117989111
 30
0.0
  0
SPLINE
  5
1EE
330
1F
100
AcDbEntity
  8
0
  6
Continuous
 62
     7
370
    25
100
AcDbSpline
210
0.0
220
0.0
230
1.0
 70
     8
 71
     3
 72
     9
 73
     5
 74
     0
 42
0.00000001
 43
0.00000001
 40
0.0
 40
0.0
 40
0.0
 40
0.0
 40
0.5750074691244437
 40
1.0
 40
1.0
 40
1.0
 40
1.0
 10
10.43909475076209
 20
20.04286136132352
 30
0.0
 10
10.43887708066178
 20
20.0365536387669
 30
0.0
 10
10.4384985288829
 20
20.02558382898994
 30
0.0
 10
10.43556613679094
 20
20.01502226504067
 30
0.0
 10
10.43431989205425
 20
20.01053367924787
 30
0.0
  0
SPLINE
  5
1EF
330
1F
100
AcDbEntity
  8
0
  6
Continuous
 62
     7
370
    25
100
AcDbSpline
210
0.0
220
0.0
230
1.0
 70
     8
 71
     3
 72
    11
 73
     7
 74
     0
 42
0.00000001
 43
0.00000001
 40
0.0
 40
0.0
 40
0.0
 40
0.0
 40
0.298604717633481
 40
0.6022291801903852
 40
0.8105540532952981
 40
0.9999999999999999
 40
0.9999999999999999
 40
0.9999999999999999
 40
0.9999999999999999
 10
10.6116814131025
 20
20.10624477898017
 30
0.0
 10
10.6092296754543
 20
20.10919242286274
 30
0.0
 10
10.60428498480904
 20
20.11513726249208
 30
0.0
 10
10.60355509480767
 20
20.1257411650297
 30
0.0
 10
10.60490576403674
 20
20.1345552969041
 30
0.0
 10
10.60762196804094
 20
20.13880527555107
 30
0.0
 10
10.6089156120525
 20
20.14082940901727
 30
0.0
  0
SPLINE
  5
1F0
330
1F
100
AcDbEntity
  8
0
  6
Continuous
 62
     7
370
    25
100
AcDbSpline
210
0.0
220
0.0
230
1.0
 70
     8
 71
     3
 72
    11
 73
     7
 74
     0
 42
0.00000001
 43
0.00000001
 40
0.0
 40
0.0
 40
0.0
 40
0.0
 40
0.2450422980410768
 40
0.5318742732899854
 40
0.7808311536342395
 40
1.0
 40
1.0
 40
1.0
 40
1.0
 10
10.56757321660318
 20
20.15511463942703
 30
0.0
 10
10.56481746675246
 20
20.14940199256794
 30
0.0
 10
10.5588359996305
 20
20.1370024602381
 30
0.0
 10
10.55833863638466
 20
20.11663712808202
 30
0.0
 10
10.56116536887796
 20
20.09708412809699
 30
0.0
 10
10.56808894999895
 20
20.08710712136316
 30
0.0
 10
10.57133045799653
 20
20.08243604918902
 30
0.0
  0
SPLINE
  5
1F1
330
1F
100
AcDbEntity
  8
0
  6
Continuous
 62
     7
370
    25
100
AcDbSpline
210
0.0
220
0.0
230
1.0
 70
     8
 71
     3
 72
     9
 73
     5
 74
     0
 42
0.00000001
 43
0.00000001
 40
0.0
 40
0.0
 40
0.0
 40
0.0
 40
0.5888612228155611
 40
1.0
 40
1.0
 40
1.0
 40
1.0
 10
10.55328795570269
 20
20.01177956075529
 30
0.0
 10
10.55396331365066
 20
20.00341592831773
 30
0.0
 10
10.55511020178288
 20
19.9892128663508
 30
0.0
 10
10.5609282709581
 20
19.97625881894348
 30
0.0
 10
10.56332030480437
 20
19.97093290773284
 30
0.0
  0
SPLINE
  5
1F2
330
1F
100
AcDbEntity
  8
0
  6
Continuous
 62
     7
370
    25
100
AcDbSpline
210
0.0
220
0.0
230
1.0
 70
     8
 71
     3
 72
     9
 73
     5
 74
     0
 42
0.00000001
 43
0.00000001
 40
0.0
 40
0.0
 40
0.0
 40
0.0
 40
0.5703905607770122
 40
1.0
 40
1.0
 40
1.0
 40
1.0
 10
10.62119181529516
 20
20.19093863161435
 30
0.0
 10
10.61498850985985
 20
20.18915049393109
 30
0.0
 10
10.60411296972669
 20
20.18601555831638
 30
0.0
 10
10.59433172095153
 20
20.18035197995078
 30
0.0
 10
10.59012960415033
 20
20.17791885322513
 30
0.0
  0
SPLINE
  5
1F3
330
1F
100
AcDbEntity
  8
0
  6
Continuous
 62
     7
370
    25
100
AcDbSpline
210
0.0
220
0.0
230
1.0
 70
     8
 71
     3
 72
     9
 73
     5
 74
     0
 42
0.00000001
 43
0.00000001
 40
0.0
 40
0.0
 40
0.0
 40
0.0
 40
0.549263693837757
 40
0.9999999999999999
 40
0.9999999999999999
 40
0.9999999999999999
 40
0.9999999999999999
 10
10.57133045799653
 20
20.08243604918902
 30
0.0
 10
10.57642031592754
 20
20.07749154843871
 30
0.0
 10
10.58568700875308
 20
20.06848949568012
 30
0.0
 10
10.5973911844121
 20
20.0630763000637
 30
0.0
 10
10.60266668131532
 20
20.06063637626703
 30
0.0
  0
SPLINE
  5
1F4
330
1F
100
AcDbEntity
  8
0
  6
Continuous
 62
     7
370
    25
100
AcDbSpline
210
0.0
220
0.0
230
1.0
 70
     8
 71
     3
 72
     9
 73
     5
 74
     0
 42
0.00000001
 43
0.00000001
 40
0.0
 40
0.0
 40
0.0
 40
0.0
 40
0.5649208353725217
 40
0.9999999999999999
 40
0.9999999999999999
 40
0.9999999999999999
 40
0.9999999999999999
 10
10.56332030480437
 20
19.97093290773284
 30
0.0
 10
10.56696861174164
 20
19.96502847327289
 30
0.0
 10
10.57342669703224
 20
19.95457668234884
 30
0.0
 10
10.5831475853732
 20
19.94711999988071
 30
0.0
 10
10.58737694135202
 20
19.94387575270159
 30
0.0
  0
SPLINE
  5
1F5
330
1F
100
AcDbEntity
  8
0
  6
Continuous
 62
     7
370
    25
100
AcDbSpline
210
0.0
220
0.0
230
1.0
 70
     8
 71
     3
 72
    10
 73
     6
 74
     0
 42
0.00000001
 43
0.00000001
 40
0.0
 40
0.0
 40
0.0
 40
0.0
 40
0.292796763621839
 40
0.5952842632326699
 40
0.9999999999999999
 40
0.9999999999999999
 40
0.9999999999999999
 40
0.9999999999999999
 10
10.69612742645609
 20
20.19144741518886
 30
0.0
 10
10.68885447146691
 20
20.19259361795437
 30
0.0
 10
10.67406784746636
 20
20.19492395952079
 30
0.0
 10
10.64879191764169
 20
20.19597064227406
 30
0.0
 10
10.63123768736481
 20
20.19277018045087
 30
0.0
 10
10.62119181529516
 20
20.19093863161435
 30
0.0
  0
SPLINE
  5
1F6
330
1F
100
AcDbEntity
  8
0
  6
Continuous
 62
     7
370
    25
100
AcDbSpline
210
0.0
220
0.0
230
1.0
 70
     8
 71
     3
 72
     9
 73
     5
 74
     0
 42
0.00000001
 43
0.00000001
 40
0.0
 40
0.0
 40
0.0
 40
0.0
 40
0.5690334213214536
 40
1.0
 40
1.0
 40
1.0
 40
1.0
 10
10.6219484591552
 20
19.92909477121096
 30
0.0
 10
10.63721462237472
 20
19.92672682010005
 30
0.0
 10
10.66404285890267
 20
19.92256546327603
 30
0.0
 10
10.6908313939123
 20
19.92660866787006
 30
0.0
 10
10.70237635719321
 20
19.92835115392085
 30
0.0
  0
SPLINE
  5
1F7
330
1F
100
AcDbEntity
  8
0
  6
Continuous
 62
     7
370
    25
100
AcDbSpline
210
0.0
220
0.0
230
1.0
 70
     8
 71
     3
 72
     9
 73
     5
 74
     0
 42
0.00000001
 43
0.00000001
 40
0.0
 40
0.0
 40
0.0
 40
0.0
 40
0.5602072701447899
 40
1.0
 40
1.0
 40
1.0
 40
1.0
 10
10.76602730498688
 20
20.03684069763181
 30
0.0
 10
10.76307801762821
 20
20.04129529044931
 30
0.0
 10
10.75781338163392
 20
20.04924697736038
 30
0.0
 10
10.75028927256513
 20
20.05507340788984
 30
0.0
 10
10.74698022409803
 20
20.05763582967771
 30
0.0
  0
SPLINE
  5
1F8
330
1F
100
AcDbEntity
  8
0
  6
Continuous
 62
     7
370
    25
100
AcDbSpline
210
0.0
220
0.0
230
1.0
 70
     8
 71
     3
 72
     9
 73
     5
 74
     0
 42
0.00000001
 43
0.00000001
 40
0.0
 40
0.0
 40
0.0
 40
0.0
 40
0.5473376006431058
 40
1.0
 40
1.0
 40
1.0
 40
1.0
 10
10.60266668131532
 20
20.06063637626703
 30
0.0
 10
10.60996009261202
 20
20.05790114009052
 30
0.0
 10
10.62328534431798
 20
20.05290379261559
 30
0.0
 10
10.63720111979225
 20
20.04994665855538
 30
0.0
 10
10.64350026810735
 20
20.04860807515646
 30
0.0
  0
SPLINE
  5
1F9
330
1F
100
AcDbEntity
  8
0
  6
Continuous
 62
     7
370
    25
100
AcDbSpline
210
0.0
220
0.0
230
1.0
 70
     8
 71
     3
 72
     9
 73
     5
 74
     0
 42
0.00000001
 43
0.00000001
 40
0.0
 40
0.0
 40
0.0
 40
0.0
 40
0.5844516101950831
 40
1.0
 40
1.0
 40
1.0
 40
1.0
 10
10.63148503831913
 20
20.09422952902548
 30
0.0
 10
10.62729961042442
 20
20.09605004015972
 30
0.0
 10
10.62013831970044
 20
20.09916494497389
 30
0.0
 10
10.61416402263024
 20
20.10416642288681
 30
0.0
 10
10.6116814131025
 20
20.10624477898017
 30
0.0
  0
SPLINE
  5
1FA
330
1F
100
AcDbEntity
  8
0
  6
Continuous
 62
     7
370
    25
100
AcDbSpline
210
0.0
220
0.0
230
1.0
 70
     8
 71
     3
 72
     9
 73
     5
 74
     0
 42
0.00000001
 43
0.00000001
 40
0.0
 40
0.0
 40
0.0
 40
0.0
 40
0.5573705715640087
 40
0.9999999999999999
 40
0.9999999999999999
 40
0.9999999999999999
 40
0.9999999999999999
 10
10.7199230895493
 20
20.07091653165292
 30
0.0
 10
10.71416106625502
 20
20.07271322268982
 30
0.0
 10
10.70382319843737
 20
20.07593673524784
 30
0.0
 10
10.69327073556137
 20
20.07836200627234
 30
0.0
 10
10.68859990494998
 20
20.07943550259971
 30
0.0
  0
SPLINE
  5
1FB
330
1F
100
AcDbEntity
  8
0
  6
Continuous
 62
     7
370
    25
100
AcDbSpline
210
0.0
220
0.0
230
1.0
 70
     8
 71
     3
 72
     9
 73
     5
 74
     0
 42
0.00000001
 43
0.00000001
 40
0.0
 40
0.0
 40
0.0
 40
0.0
 40
0.5814361705901515
 40
1.0
 40
1.0
 40
1.0
 40
1.0
 10
10.65854217286789
 20
20.08619326422438
 30
0.0
 10
10.65320374502529
 20
20.08744060810178
 30
0.0
 10
10.64402229379706
 20
20.0895858889434
 30
0.0
 10
10.63518430200705
 20
20.09285936877265
 30
0.0
 10
10.63148503831913
 20
20.09422952902548
 30
0.0
  0
SPLINE
  5
1FC
330
1F
100
AcDbEntity
  8
0
  6
Continuous
 62
     7
370
    25
100
AcDbSpline
210
0.0
220
0.0
230
1.0
 70
     8
 71
     3
 72
     9
 73
     5
 74
     0
 42
0.00000001
 43
0.00000001
 40
0.0
 40
0.0
 40
0.0
 40
0.0
 40
0.5458096279349303
 40
1.0
 40
1.0
 40
1.0
 40
1.0
 10
10.74698022409803
 20
20.05763582967771
 30
0.0
 10
10.74231332774481
 20
20.0605822274059
 30
0.0
 10
10.73376291728232
 20
20.06598044241968
 30
0.0
 10
10.72424571238337
 20
20.06937483240332
 30
0.0
 10
10.7199230895493
 20
20.07091653165292
 30
0.0
  0
SPLINE
  5
1FD
330
1F
100
AcDbEntity
  8
0
  6
Continuous
 62
     7
370
    25
100
AcDbSpline
210
0.0
220
0.0
230
1.0
 70
     8
 71
     3
 72
    12
 73
     8
 74
     0
 42
0.00000001
 43
0.00000001
 40
0.0
 40
0.0
 40
0.0
 40
0.0
 40
0.2127649682792595
 40
0.4233051586766978
 40
0.6371633648580327
 40
0.8264777580874707
 40
1.0
 40
1.0
 40
1.0
 40
1.0
 10
10.71567017775043
 20
20.0253081413813
 30
0.0
 10
10.71844258936115
 20
20.02300769253585
 30
0.0
 10
10.72395842284767
 20
20.01843084949904
 30
0.0
 10
10.72798744058038
 20
20.0081285772165
 30
0.0
 10
10.72847263365632
 20
19.99785865481547
 30
0.0
 10
10.72697339553586
 20
19.98813298903734
 30
0.0
 10
10.72373080955479
 20
19.98294874701193
 30
0.0
 10
10.72218008194205
 20
19.98046944582859
 30
0.0
  0
SPLINE
  5
1FE
330
1F
100
AcDbEntity
  8
0
  6
Continuous
 62
     7
370
    25
100
AcDbSpline
210
0.0
220
0.0
230
1.0
 70
     8
 71
     3
 72
     9
 73
     5
 74
     0
 42
0.00000001
 43
0.00000001
 40
0.0
 40
0.0
 40
0.0
 40
0.0
 40
0.5581563775261967
 40
1.0
 40
1.0
 40
1.0
 40
1.0
 10
10.69863225405164
 20
20.14808291550206
 30
0.0
 10
10.70165669205996
 20
20.14604170598134
 30
0.0
 10
10.70707531331037
 20
20.14238464928019
 30
0.0
 10
10.71094621033433
 20
20.13713484484856
 30
0.0
 10
10.71265654149761
 20
20.13481525224121
 30
0.0
  0
SPLINE
  5
1FF
330
1F
100
AcDbEntity
  8
0
  6
Continuous
 62
     7
370
    25
100
AcDbSpline
210
0.0
220
0.0
230
1.0
 70
     8
 71
     3
 72
     9
 73
     5
 74
     0
 42
0.00000001
 43
0.00000001
 40
0.0
 40
0.0
 40
0.0
 40
0.0
 40
0.5579042182885946
 40
1.0
 40
1.0
 40
1.0
 40
1.0
 10
10.59012960415033
 20
20.17791885322513
 30
0.0
 10
10.5852355543543
 20
20.17435182242699
 30
0.0
 10
10.57646335003034
 20
20.16795819663745
 30
0.0
 10
10.57029861843629
 20
20.15905202176801
 30
0.0
 10
10.56757321660318
 20
20.15511463942703
 30
0.0
  0
SPLINE
  5
200
330
1F
100
AcDbEntity
  8
0
  6
Continuous
 62
     7
370
    25
100
AcDbSpline
210
0.0
220
0.0
230
1.0
 70
     8
 71
     3
 72
     9
 73
     5
 74
     0
 42
0.00000001
 43
0.00000001
 40
0.0
 40
0.0
 40
0.0
 40
0.0
 40
0.5560881808554672
 40
1.0
 40
1.0
 40
1.0
 40
1.0
 10
10.72218008194205
 20
19.98046944582859
 30
0.0
 10
10.71974440000037
 20
19.977756631874
 30
0.0
 10
10.71536437175031
 20
19.97287824379099
 30
0.0
 10
10.70950453289305
 20
19.96997694013284
 30
0.0
 10
10.70690328116603
 20
19.96868901714807
 30
0.0
  0
SPLINE
  5
201
330
1F
100
AcDbEntity
  8
0
  6
Continuous
 62
     7
370
    25
100
AcDbSpline
210
0.0
220
0.0
230
1.0
 70
     8
 71
     3
 72
     9
 73
     5
 74
     0
 42
0.00000001
 43
0.00000001
 40
0.0
 40
0.0
 40
0.0
 40
0.0
 40
0.5667921656735939
 40
1.0
 40
1.0
 40
1.0
 40
1.0
 10
10.67984614661727
 20
20.15536252429861
 30
0.0
 10
10.68355604245148
 20
20.15438900341308
 30
0.0
 10
10.69010146784527
 20
20.15267140577414
 30
0.0
 10
10.69605370031431
 20
20.14946985317152
 30
0.0
 10
10.69863225405163
 20
20.14808291550206
 30
0.0
  0
SPLINE
  5
202
330
1F
100
AcDbEntity
  8
0
  6
Continuous
 62
     7
370
    25
100
AcDbSpline
210
0.0
220
0.0
230
1.0
 70
     8
 71
     3
 72
     9
 73
     5
 74
     0
 42
0.00000001
 43
0.00000001
 40
0.0
 40
0.0
 40
0.0
 40
0.0
 40
0.5465682385871704
 40
1.0
 40
1.0
 40
1.0
 40
1.0
 10
10.6089156120525
 20
20.14082940901727
 30
0.0
 10
10.61098978760399
 20
20.14305415842081
 30
0.0
 10
10.61478469445195
 20
20.14712455484431
 30
0.0
 10
10.61971355653784
 20
20.14968682578936
 30
0.0
 10
10.6219484591552
 20
20.15084864081719
 30
0.0
  0
SPLINE
  5
203
330
1F
100
AcDbEntity
  8
0
  6
Continuous
 62
     7
370
    25
100
AcDbSpline
210
0.0
220
0.0
230
1.0
 70
     8
 71
     3
 72
     9
 73
     5
 74
     0
 42
0.00000001
 43
0.00000001
 40
0.0
 40
0.0
 40
0.0
 40
0.0
 40
0.5455996987877062
 40
1.0
 40
1.0
 40
1.0
 40
1.0
 10
10.6219484591552
 20
20.15084864081719
 30
0.0
 10
10.6250874562858
 20
20.152143562703
 30
0.0
 10
10.63084075332313
 20
20.15451695456644
 30
0.0
 10
10.63696174553946
 20
20.15561858614188
 30
0.0
 10
10.63974312624627
 20
20.15611916786159
 30
0.0
  0
SPLINE
  5
204
330
1F
100
AcDbEntity
  8
0
  6
Continuous
 62
     7
370
    25
100
AcDbSpline
210
0.0
220
0.0
230
1.0
 70
     8
 71
     3
 72
     9
 73
     5
 74
     0
 42
0.00000001
 43
0.00000001
 40
0.0
 40
0.0
 40
0.0
 40
0.0
 40
0.5654254817960834
 40
1.0
 40
1.0
 40
1.0
 40
1.0
 10
10.75174204408633
 20
20.15335344254643
 30
0.0
 10
10.74829753802584
 20
20.15888003088682
 30
0.0
 10
10.74220565470722
 20
20.16865424255277
 30
0.0
 10
10.73295703555049
 20
20.175457901344
 30
0.0
 10
10.72893782133641
 20
20.17841459808522
 30
0.0
  0
SPLINE
  5
205
330
1F
100
AcDbEntity
  8
0
  6
Continuous
 62
     7
370
    25
100
AcDbSpline
210
0.0
220
0.0
230
1.0
 70
     8
 71
     3
 72
     9
 73
     5
 74
     0
 42
0.00000001
 43
0.00000001
 40
0.0
 40
0.0
 40
0.0
 40
0.0
 40
0.5201624703046044
 40
1.0
 40
1.0
 40
1.0
 40
1.0
 10
10.68659084729216
 20
19.96318365638798
 30
0.0
 10
10.67852850882354
 20
19.96233115995277
 30
0.0
 10
10.66302885452533
 20
19.96069225579518
 30
0.0
 10
10.64762847616202
 20
19.96304581632647
 30
0.0
 10
10.6402387966518
 20
19.96417514299779
 30
0.0
  0
SPLINE
  5
206
330
1F
100
AcDbEntity
  8
0
  6
Continuous
 62
     7
370
    25
100
AcDbSpline
210
0.0
220
0.0
230
1.0
 70
     8
 71
     3
 72
     9
 73
     5
 74
     0
 42
0.00000001
 43
0.00000001
 40
0.0
 40
0.0
 40
0.0
 40
0.0
 40
0.557610351258229
 40
1.0
 40
1.0
 40
1.0
 40
1.0
 10
10.6181913172941
 20
19.9724462321834
 30
0.0
 10
10.61473640885456
 20
19.97481987424741
 30
0.0
 10
10.60854049008844
 20
19.97907668558287
 30
0.0
 10
10.60428735176292
 20
19.98525198663567
 30
0.0
 10
10.60240580739304
 20
19.98798387589929
 30
0.0
  0
SPLINE
  5
207
330
1F
100
AcDbEntity
  8
0
  6
Continuous
 62
     7
370
    25
100
AcDbSpline
210
0.0
220
0.0
230
1.0
 70
     8
 71
     3
 72
     9
 73
     5
 74
     0
 42
0.00000001
 43
0.00000001
 40
0.0
 40
0.0
 40
0.0
 40
0.0
 40
0.577213049433567
 40
1.0
 40
1.0
 40
1.0
 40
1.0
 10
10.64350026810735
 20
20.04860807515646
 30
0.0
 10
10.6514117736065
 20
20.04701067053619
 30
0.0
 10
10.66511816071419
 20
20.04424322683088
 30
0.0
 10
10.67862390288431
 20
20.04062666294699
 30
0.0
 10
10.68433395443156
 20
20.03909762693099
 30
0.0
  0
SPLINE
  5
208
330
1F
100
AcDbEntity
  8
0
  6
Continuous
 62
     7
370
    25
100
AcDbSpline
210
0.0
220
0.0
230
1.0
 70
     8
 71
     3
 72
     9
 73
     5
 74
     0
 42
0.00000001
 43
0.00000001
 40
0.0
 40
0.0
 40
0.0
 40
0.0
 40
0.560548049070655
 40
1.0
 40
1.0
 40
1.0
 40
1.0
 10
10.68859990494998
 20
20.07943550259971
 30
0.0
 10
10.68298970467109
 20
20.08072522427091
 30
0.0
 10
10.67298128471817
 20
20.08302604696282
 30
0.0
 10
10.66295030602453
 20
20.08522634080348
 30
0.0
 10
10.65854217286789
 20
20.08619326422438
 30
0.0
  0
SPLINE
  5
20A
330
1F
100
AcDbEntity
  8
0
  6
Continuous
 62
     7
370
    25
100
AcDbSpline
210
0.0
220
0.0
230
1.0
 70
     8
 71
     3
 72
     9
 73
     5
 74
     0
 42
0.00000001
 43
0.00000001
 40
0.0
 40
0.0
 40
0.0
 40
0.0
 40
0.5427779767687269
 40
1.0
 40
1.0
 40
1.0
 40
1.0
 10
10.63974312624627
 20
20.15611916786159
 30
0.0
 10
10.64702569099692
 20
20.15698001143832
 30
0.0
 10
10.66044289851517
 20
20.15856600721114
 30
0.0
 10
10.67375812968295
 20
20.15636765798127
 30
0.0
 10
10.67984614661727
 20
20.15536252429861
 30
0.0
  0
SPLINE
  5
20B
330
1F
100
AcDbEntity
  8
0
  6
Continuous
 62
     7
370
    25
100
AcDbSpline
210
0.0
220
0.0
230
1.0
 70
     8
 71
     3
 72
     9
 73
     5
 74
     0
 42
0.00000001
 43
0.00000001
 40
0.0
 40
0.0
 40
0.0
 40
0.0
 40
0.5597506044142851
 40
1.0
 40
1.0
 40
1.0
 40
1.0
 10
10.73796559184308
 20
19.94161881718164
 30
0.0
 10
10.74354498223885
 20
19.94549100738192
 30
0.0
 10
10.75351261845356
 20
19.95240871353489
 30
0.0
 10
10.76046270568737
 20
19.96231757894155
 30
0.0
 10
10.76352247739132
 20
19.96667995094777
 30
0.0
  0
SPLINE
  5
20C
330
1F
100
AcDbEntity
  8
0
  6
Continuous
 62
     7
370
    25
100
AcDbSpline
210
0.0
220
0.0
230
1.0
 70
     8
 71
     3
 72
     9
 73
     5
 74
     0
 42
0.00000001
 43
0.00000001
 40
0.0
 40
0.0
 40
0.0
 40
0.0
 40
0.5329023985918097
 40
1.0
 40
1.0
 40
1.0
 40
1.0
 10
10.60240580739304
 20
19.98798387589929
 30
0.0
 10
10.60044505366995
 20
19.99199809141546
 30
0.0
 10
10.59676566748542
 20
19.99953083198254
 30
0.0
 10
10.59617282057247
 20
20.00787978488178
 30
0.0
 10
10.59589590320142
 20
20.01177956075528
 30
0.0
  0
SPLINE
  5
20D
330
1F
100
AcDbEntity
  8
0
  6
Continuous
 62
     7
370
    25
100
AcDbSpline
210
0.0
220
0.0
230
1.0
 70
     8
 71
     3
 72
     9
 73
     5
 74
     0
 42
0.00000001
 43
0.00000001
 40
0.0
 40
0.0
 40
0.0
 40
0.0
 40
0.5720802560671773
 40
1.0
 40
1.0
 40
1.0
 40
1.0
 10
10.6402387966518
 20
19.96417514299779
 30
0.0
 10
10.63583979926445
 20
19.9652518836341
 30
0.0
 10
10.62815032328499
 20
19.96713403325365
 30
0.0
 10
10.62117583747568
 20
19.97085426959909
 30
0.0
 10
10.6181913172941
 20
19.9724462321834
 30
0.0
  0
SPLINE
  5
20E
330
1F
100
AcDbEntity
  8
0
  6
Continuous
 62
     7
370
    25
100
AcDbSpline
210
0.0
220
0.0
230
1.0
 70
     8
 71
     3
 72
     9
 73
     5
 74
     0
 42
0.00000001
 43
0.00000001
 40
0.0
 40
0.0
 40
0.0
 40
0.0
 40
0.5940486364884414
 40
1.0
 40
1.0
 40
1.0
 40
1.0
 10
10.76177429365581
 20
20.11400708148091
 30
0.0
 10
10.76098421239712
 20
20.12212983418232
 30
0.0
 10
10.75965421816742
 20
20.135803382445
 30
0.0
 10
10.75402658816084
 20
20.1482860760551
 30
0.0
 10
10.75174204408633
 20
20.15335344254643
 30
0.0
  0
SPLINE
  5
20F
330
1F
100
AcDbEntity
  8
0
  6
Continuous
 62
     7
370
    25
100
AcDbSpline
210
0.0
220
0.0
230
1.0
 70
     8
 71
     3
 72
    11
 73
     7
 74
     0
 42
0.00000001
 43
0.00000001
 40
0.0
 40
0.0
 40
0.0
 40
0.0
 40
0.2938510984364536
 40
0.6177999365186424
 40
0.8192299893872097
 40
1.0
 40
1.0
 40
1.0
 40
1.0
 10
10.76352247739132
 20
19.96667995094777
 30
0.0
 10
10.766594470547
 20
19.97319695040894
 30
0.0
 10
10.77305310618478
 20
19.98689845390789
 30
0.0
 10
10.77380131904808
 20
20.00717472018775
 30
0.0
 10
10.77188615570421
 20
20.02438107651362
 30
0.0
 10
10.7679085852806
 20
20.03283990621251
 30
0.0
 10
10.76602730498688
 20
20.03684069763181
 30
0.0
  0
SPLINE
  5
210
330
1F
100
AcDbEntity
  8
0
  6
Continuous
 62
     7
370
    25
100
AcDbSpline
210
0.0
220
0.0
230
1.0
 70
     8
 71
     3
 72
     9
 73
     5
 74
     0
 42
0.00000001
 43
0.00000001
 40
0.0
 40
0.0
 40
0.0
 40
0.0
 40
0.5911709892453902
 40
0.9999999999999999
 40
0.9999999999999999
 40
0.9999999999999999
 40
0.9999999999999999
 10
10.68433395443156
 20
20.03909762693099
 30
0.0
 10
10.69083393318754
 20
20.03708976411016
 30
0.0
 10
10.70182902407364
 20
20.0336933477478
 30
0.0
 10
10.71165360432513
 20
20.02774144989327
 30
0.0
 10
10.71567017775043
 20
20.0253081413813
 30
0.0
  0
SPLINE
  5
211
330
1F
100
AcDbEntity
  8
0
  6
Continuous
 62
     7
370
    25
100
AcDbSpline
210
0.0
220
0.0
230
1.0
 70
     8
 71
     3
 72
     9
 73
     5
 74
     0
 42
0.00000001
 43
0.00000001
 40
0.0
 40
0.0
 40
0.0
 40
0.0
 40
0.5471237248728544
 40
1.0
 40
1.0
 40
1.0
 40
1.0
 10
10.58737694135202
 20
19.94387575270159
 30
0.0
 10
10.59332426629657
 20
19.94032282180642
 30
0.0
 10
10.60419443089403
 20
19.93382898735243
 30
0.0
 10
10.61641434842253
 20
19.93057047441329
 30
0.0
 10
10.6219484591552
 20
19.92909477121096
 30
0.0
  0
SPLINE
  5
212
330
1F
100
AcDbEntity
  8
0
  6
Continuous
 62
     7
370
    25
100
AcDbSpline
210
0.0
220
0.0
230
1.0
 70
     8
 71
     3
 72
     9
 73
     5
 74
     0
 42
0.00000001
 43
0.00000001
 40
0.0
 40
0.0
 40
0.0
 40
0.0
 40
0.5286371026092553
 40
1.0
 40
1.0
 40
1.0
 40
1.0
 10
10.71265654149761
 20
20.13481525224121
 30
0.0
 10
10.71448422948878
 20
20.13135613703483
 30
0.0
 10
10.71794158800967
 20
20.12481267803563
 30
0.0
 10
10.71877405271418
 20
20.11746874094582
 30
0.0
 10
10.71916644568927
 20
20.11400708148091
 30
0.0
  0
SPLINE
  5
213
330
1F
100
AcDbEntity
  8
0
  6
Continuous
 62
     7
370
    25
100
AcDbSpline
210
0.0
220
0.0
230
1.0
 70
     8
 71
     3
 72
     9
 73
     5
 74
     0
 42
0.00000001
 43
0.00000001
 40
0.0
 40
0.0
 40
0.0
 40
0.0
 40
0.5707821318075195
 40
0.9999999999999999
 40
0.9999999999999999
 40
0.9999999999999999
 40
0.9999999999999999
 10
10.70237635719321
 20
19.92835115392085
 30
0.0
 10
10.70948309751194
 20
19.93000935468713
 30
0.0
 10
10.72193397836944
 20
19.93291449252148
 30
0.0
 10
10.73315103199746
 20
19.93900476388869
 30
0.0
 10
10.73796559184308
 20
19.94161881718164
 30
0.0
  0
SPLINE
  5
214
330
1F
100
AcDbEntity
  8
0
  6
Continuous
 62
     7
370
    25
100
AcDbSpline
210
0.0
220
0.0
230
1.0
 70
     8
 71
     3
 72
     9
 73
     5
 74
     0
 42
0.00000001
 43
0.00000001
 40
0.0
 40
0.0
 40
0.0
 40
0.0
 40
0.5460549375360652
 40
0.9999999999999999
 40
0.9999999999999999
 40
0.9999999999999999
 40
0.9999999999999999
 10
10.72893782133641
 20
20.17841459808522
 30
0.0
 10
10.72328238476977
 20
20.1816045332599
 30
0.0
 10
10.71292548443268
 20
20.18744631758489
 30
0.0
 10
10.70137205066805
 20
20.19019820808424
 30
0.0
 10
10.69612742645609
 20
20.19144741518886
 30
0.0
  0
SPLINE
  5
215
330
1F
100
AcDbEntity
  8
0
  6
Continuous
 62
     7
370
    25
100
AcDbSpline
210
0.0
220
0.0
230
1.0
 70
     8
 71
     3
 72
     9
 73
     5
 74
     0
 42
0.00000001
 43
0.00000001
 40
0.0
 40
0.0
 40
0.0
 40
0.0
 40
0.5478538720941297
 40
1.0
 40
1.0
 40
1.0
 40
1.0
 10
10.70690328116603
 20
19.96868901714807
 30
0.0
 10
10.70329183313631
 20
19.96731252453595
 30
0.0
 10
10.69669984170633
 20
19.96480000672376
 30
0.0
 10
10.68973842493159
 20
19.96368692980627
 30
0.0
 10
10.68659084729216
 20
19.96318365638798
 30
0.0
  0
SPLINE
  5
218
330
1F
100
AcDbEntity
  8
0
  6
Continuous
 62
     7
370
    25
100
AcDbSpline
210
0.0
220
0.0
230
1.0
 70
     8
 71
     3
 72
     9
 73
     5
 74
     0
 42
0.00000001
 43
0.00000001
 40
0.0
 40
0.0
 40
0.0
 40
0.0
 40
0.5478538720942665
 40
1.0
 40
1.0
 40
1.0
 40
1.0
 10
10.70690328116603
 20
19.96868901714806
 30
0.0
 10
10.7032918331363
 20
19.96731252453595
 30
0.0
 10
10.69669984170632
 20
19.96480000672376
 30
0.0
 10
10.68973842493159
 20
19.9636869298063
 30
0.0
 10
10.68659084729216
 20
19.963183656388
 30
0.0
  0
SPLINE
  5
219
330
1F
100
AcDbEntity
  8
0
  6
Continuous
 62
     7
370
    25
100
AcDbSpline
210
0.0
220
0.0
230
1.0
 70
     8
 71
     3
 72
     9
 73
     5
 74
     0
 42
0.00000001
 43
0.00000001
 40
0.0
 40
0.0
 40
0.0
 40
0.0
 40
0.5460549375359328
 40
1.0
 40
1.0
 40
1.0
 40
1.0
 10
10.7289378213364
 20
20.17841459808522
 30
0.0
 10
10.72328238476977
 20
20.1816045332599
 30
0.0
 10
10.71292548443268
 20
20.1874463175849
 30
0.0
 10
10.70137205066804
 20
20.19019820808424
 30
0.0
 10
10.69612742645609
 20
20.19144741518886
 30
0.0
  0
SPLINE
  5
21A
330
1F
100
AcDbEntity
  8
0
  6
Continuous
 62
     7
370
    25
100
AcDbSpline
210
0.0
220
0.0
230
1.0
 70
     8
 71
     3
 72
     9
 73
     5
 74
     0
 42
0.00000001
 43
0.00000001
 40
0.0
 40
0.0
 40
0.0
 40
0.0
 40
0.5707821318074789
 40
0.9999999999999999
 40
0.9999999999999999
 40
0.9999999999999999
 40
0.9999999999999999
 10
10.70237635719321
 20
19.92835115392086
 30
0.0
 10
10.70948309751194
 20
19.93000935468714
 30
0.0
 10
10.72193397836944
 20
19.93291449252148
 30
0.0
 10
10.73315103199746
 20
19.93900476388869
 30
0.0
 10
10.73796559184308
 20
19.94161881718164
 30
0.0
  0
SPLINE
  5
21B
330
1F
100
AcDbEntity
  8
0
  6
Continuous
 62
     7
370
    25
100
AcDbSpline
210
0.0
220
0.0
230
1.0
 70
     8
 71
     3
 72
     9
 73
     5
 74
     0
 42
0.00000001
 43
0.00000001
 40
0.0
 40
0.0
 40
0.0
 40
0.0
 40
0.5286371026093487
 40
1.0
 40
1.0
 40
1.0
 40
1.0
 10
10.71265654149761
 20
20.1348152522412
 30
0.0
 10
10.71448422948878
 20
20.13135613703482
 30
0.0
 10
10.71794158800968
 20
20.12481267803562
 30
0.0
 10
10.71877405271418
 20
20.11746874094582
 30
0.0
 10
10.71916644568927
 20
20.11400708148091
 30
0.0
  0
SPLINE
  5
21C
330
1F
100
AcDbEntity
  8
0
  6
Continuous
 62
     7
370
    25
100
AcDbSpline
210
0.0
220
0.0
230
1.0
 70
     8
 71
     3
 72
     9
 73
     5
 74
     0
 42
0.00000001
 43
0.00000001
 40
0.0
 40
0.0
 40
0.0
 40
0.0
 40
0.5471237248727102
 40
1.0
 40
1.0
 40
1.0
 40
1.0
 10
10.58737694135202
 20
19.94387575270158
 30
0.0
 10
10.59332426629656
 20
19.9403228218064
 30
0.0
 10
10.60419443089403
 20
19.93382898735242
 30
0.0
 10
10.61641434842253
 20
19.93057047441329
 30
0.0
 10
10.6219484591552
 20
19.92909477121097
 30
0.0
  0
SPLINE
  5
21D
330
1F
100
AcDbEntity
  8
0
  6
Continuous
 62
     7
370
    25
100
AcDbSpline
210
0.0
220
0.0
230
1.0
 70
     8
 71
     3
 72
     9
 73
     5
 74
     0
 42
0.00000001
 43
0.00000001
 40
0.0
 40
0.0
 40
0.0
 40
0.0
 40
0.5911709892456709
 40
1.0
 40
1.0
 40
1.0
 40
1.0
 10
10.68433395443155
 20
20.03909762693098
 30
0.0
 10
10.69083393318754
 20
20.03708976411015
 30
0.0
 10
10.70182902407364
 20
20.0336933477478
 30
0.0
 10
10.71165360432513
 20
20.02774144989328
 30
0.0
 10
10.71567017775042
 20
20.0253081413813
 30
0.0
  0
SPLINE
  5
21E
330
1F
100
AcDbEntity
  8
0
  6
Continuous
 62
     7
370
    25
100
AcDbSpline
210
0.0
220
0.0
230
1.0
 70
     8
 71
     3
 72
    11
 73
     7
 74
     0
 42
0.00000001
 43
0.00000001
 40
0.0
 40
0.0
 40
0.0
 40
0.0
 40
0.2938510984363941
 40
0.6177999365185509
 40
0.819229989387257
 40
0.9999999999999999
 40
0.9999999999999999
 40
0.9999999999999999
 40
0.9999999999999999
 10
10.76352247739133
 20
19.96667995094777
 30
0.0
 10
10.76659447054701
 20
19.97319695040894
 30
0.0
 10
10.77305310618479
 20
19.98689845390791
 30
0.0
 10
10.77380131904807
 20
20.00717472018773
 30
0.0
 10
10.77188615570422
 20
20.02438107651363
 30
0.0
 10
10.7679085852806
 20
20.0328399062125
 30
0.0
 10
10.76602730498687
 20
20.03684069763181
 30
0.0
  0
SPLINE
  5
21F
330
1F
100
AcDbEntity
  8
0
  6
Continuous
 62
     7
370
    25
100
AcDbSpline
210
0.0
220
0.0
230
1.0
 70
     8
 71
     3
 72
     9
 73
     5
 74
     0
 42
0.00000001
 43
0.00000001
 40
0.0
 40
0.0
 40
0.0
 40
0.0
 40
0.594048636488364
 40
1.0
 40
1.0
 40
1.0
 40
1.0
 10
10.7617742936558
 20
20.11400708148091
 30
0.0
 10
10.76098421239711
 20
20.12212983418231
 30
0.0
 10
10.75965421816742
 20
20.135803382445
 30
0.0
 10
10.75402658816084
 20
20.14828607605511
 30
0.0
 10
10.75174204408633
 20
20.15335344254644
 30
0.0
  0
SPLINE
  5
220
330
1F
100
AcDbEntity
  8
0
  6
Continuous
 62
     7
370
    25
100
AcDbSpline
210
0.0
220
0.0
230
1.0
 70
     8
 71
     3
 72
     9
 73
     5
 74
     0
 42
0.00000001
 43
0.00000001
 40
0.0
 40
0.0
 40
0.0
 40
0.0
 40
0.572080256067171
 40
1.0
 40
1.0
 40
1.0
 40
1.0
 10
10.64023879665179
 20
19.96417514299779
 30
0.0
 10
10.63583979926444
 20
19.9652518836341
 30
0.0
 10
10.62815032328498
 20
19.96713403325365
 30
0.0
 10
10.62117583747567
 20
19.97085426959909
 30
0.0
 10
10.61819131729409
 20
19.97244623218341
 30
0.0
  0
SPLINE
  5
221
330
1F
100
AcDbEntity
  8
0
  6
Continuous
 62
     7
370
    25
100
AcDbSpline
210
0.0
220
0.0
230
1.0
 70
     8
 71
     3
 72
     9
 73
     5
 74
     0
 42
0.00000001
 43
0.00000001
 40
0.0
 40
0.0
 40
0.0
 40
0.0
 40
0.5329023985918451
 40
1.0
 40
1.0
 40
1.0
 40
1.0
 10
10.60240580739304
 20
19.98798387589927
 30
0.0
 10
10.60044505366996
 20
19.99199809141545
 30
0.0
 10
10.59676566748542
 20
19.99953083198253
 30
0.0
 10
10.59617282057248
 20
20.00787978488178
 30
0.0
 10
10.59589590320144
 20
20.01177956075529
 30
0.0
  0
SPLINE
  5
222
330
1F
100
AcDbEntity
  8
0
  6
Continuous
 62
     7
370
    25
100
AcDbSpline
210
0.0
220
0.0
230
1.0
 70
     8
 71
     3
 72
     9
 73
     5
 74
     0
 42
0.00000001
 43
0.00000001
 40
0.0
 40
0.0
 40
0.0
 40
0.0
 40
0.5597506044142556
 40
0.9999999999999999
 40
0.9999999999999999
 40
0.9999999999999999
 40
0.9999999999999999
 10
10.73796559184308
 20
19.94161881718164
 30
0.0
 10
10.74354498223885
 20
19.94549100738192
 30
0.0
 10
10.75351261845356
 20
19.95240871353489
 30
0.0
 10
10.76046270568737
 20
19.96231757894155
 30
0.0
 10
10.76352247739133
 20
19.96667995094777
 30
0.0
  0
SPLINE
  5
223
330
1F
100
AcDbEntity
  8
0
  6
Continuous
 62
     7
370
    25
100
AcDbSpline
210
0.0
220
0.0
230
1.0
 70
     8
 71
     3
 72
     9
 73
     5
 74
     0
 42
0.00000001
 43
0.00000001
 40
0.0
 40
0.0
 40
0.0
 40
0.0
 40
0.5427779767687347
 40
1.0
 40
1.0
 40
1.0
 40
1.0
 10
10.63974312624627
 20
20.15611916786158
 30
0.0
 10
10.64702569099691
 20
20.15698001143831
 30
0.0
 10
10.66044289851516
 20
20.15856600721114
 30
0.0
 10
10.67375812968294
 20
20.15636765798126
 30
0.0
 10
10.67984614661726
 20
20.15536252429861
 30
0.0
  0
SPLINE
  5
225
330
1F
100
AcDbEntity
  8
0
  6
Continuous
 62
     7
370
    25
100
AcDbSpline
210
0.0
220
0.0
230
1.0
 70
     8
 71
     3
 72
     9
 73
     5
 74
     0
 42
0.00000001
 43
0.00000001
 40
0.0
 40
0.0
 40
0.0
 40
0.0
 40
0.5605480490708498
 40
1.0
 40
1.0
 40
1.0
 40
1.0
 10
10.68859990494997
 20
20.07943550259971
 30
0.0
 10
10.68298970467109
 20
20.08072522427092
 30
0.0
 10
10.67298128471817
 20
20.08302604696283
 30
0.0
 10
10.66295030602454
 20
20.08522634080349
 30
0.0
 10
10.6585421728679
 20
20.08619326422439
 30
0.0
  0
SPLINE
  5
226
330
1F
100
AcDbEntity
  8
0
  6
Continuous
 62
     7
370
    25
100
AcDbSpline
210
0.0
220
0.0
230
1.0
 70
     8
 71
     3
 72
     9
 73
     5
 74
     0
 42
0.00000001
 43
0.00000001
 40
0.0
 40
0.0
 40
0.0
 40
0.0
 40
0.577213049433691
 40
1.0
 40
1.0
 40
1.0
 40
1.0
 10
10.64350026810735
 20
20.04860807515645
 30
0.0
 10
10.6514117736065
 20
20.04701067053617
 30
0.0
 10
10.66511816071419
 20
20.04424322683087
 30
0.0
 10
10.67862390288431
 20
20.04062666294698
 30
0.0
 10
10.68433395443155
 20
20.03909762693098
 30
0.0
  0
SPLINE
  5
227
330
1F
100
AcDbEntity
  8
0
  6
Continuous
 62
     7
370
    25
100
AcDbSpline
210
0.0
220
0.0
230
1.0
 70
     8
 71
     3
 72
     9
 73
     5
 74
     0
 42
0.00000001
 43
0.00000001
 40
0.0
 40
0.0
 40
0.0
 40
0.0
 40
0.5576103512582203
 40
1.0
 40
1.0
 40
1.0
 40
1.0
 10
10.61819131729409
 20
19.97244623218341
 30
0.0
 10
10.61473640885455
 20
19.97481987424741
 30
0.0
 10
10.60854049008844
 20
19.97907668558286
 30
0.0
 10
10.60428735176292
 20
19.98525198663566
 30
0.0
 10
10.60240580739304
 20
19.98798387589927
 30
0.0
  0
SPLINE
  5
228
330
1F
100
AcDbEntity
  8
0
  6
Continuous
 62
     7
370
    25
100
AcDbSpline
210
0.0
220
0.0
230
1.0
 70
     8
 71
     3
 72
     9
 73
     5
 74
     0
 42
0.00000001
 43
0.00000001
 40
0.0
 40
0.0
 40
0.0
 40
0.0
 40
0.5201624703044293
 40
1.0
 40
1.0
 40
1.0
 40
1.0
 10
10.68659084729216
 20
19.963183656388
 30
0.0
 10
10.67852850882354
 20
19.96233115995279
 30
0.0
 10
10.66302885452533
 20
19.96069225579518
 30
0.0
 10
10.64762847616202
 20
19.96304581632647
 30
0.0
 10
10.64023879665179
 20
19.96417514299779
 30
0.0
  0
SPLINE
  5
229
330
1F
100
AcDbEntity
  8
0
  6
Continuous
 62
     7
370
    25
100
AcDbSpline
210
0.0
220
0.0
230
1.0
 70
     8
 71
     3
 72
     9
 73
     5
 74
     0
 42
0.00000001
 43
0.00000001
 40
0.0
 40
0.0
 40
0.0
 40
0.0
 40
0.565425481796267
 40
1.0
 40
1.0
 40
1.0
 40
1.0
 10
10.75174204408633
 20
20.15335344254644
 30
0.0
 10
10.74829753802584
 20
20.15888003088683
 30
0.0
 10
10.74220565470721
 20
20.16865424255278
 30
0.0
 10
10.73295703555049
 20
20.175457901344
 30
0.0
 10
10.7289378213364
 20
20.17841459808522
 30
0.0
  0
SPLINE
  5
22A
330
1F
100
AcDbEntity
  8
0
  6
Continuous
 62
     7
370
    25
100
AcDbSpline
210
0.0
220
0.0
230
1.0
 70
     8
 71
     3
 72
     9
 73
     5
 74
     0
 42
0.00000001
 43
0.00000001
 40
0.0
 40
0.0
 40
0.0
 40
0.0
 40
0.545599698787609
 40
1.0
 40
1.0
 40
1.0
 40
1.0
 10
10.6219484591552
 20
20.1508486408172
 30
0.0
 10
10.6250874562858
 20
20.152143562703
 30
0.0
 10
10.63084075332313
 20
20.15451695456644
 30
0.0
 10
10.63696174553946
 20
20.15561858614188
 30
0.0
 10
10.63974312624627
 20
20.15611916786158
 30
0.0
  0
SPLINE
  5
22B
330
1F
100
AcDbEntity
  8
0
  6
Continuous
 62
     7
370
    25
100
AcDbSpline
210
0.0
220
0.0
230
1.0
 70
     8
 71
     3
 72
     9
 73
     5
 74
     0
 42
0.00000001
 43
0.00000001
 40
0.0
 40
0.0
 40
0.0
 40
0.0
 40
0.5465682385870924
 40
1.0
 40
1.0
 40
1.0
 40
1.0
 10
10.60891561205249
 20
20.14082940901727
 30
0.0
 10
10.61098978760399
 20
20.14305415842081
 30
0.0
 10
10.61478469445195
 20
20.1471245548443
 30
0.0
 10
10.61971355653784
 20
20.14968682578937
 30
0.0
 10
10.6219484591552
 20
20.15084864081721
 30
0.0
  0
SPLINE
  5
22C
330
1F
100
AcDbEntity
  8
0
  6
Continuous
 62
     7
370
    25
100
AcDbSpline
210
0.0
220
0.0
230
1.0
 70
     8
 71
     3
 72
     9
 73
     5
 74
     0
 42
0.00000001
 43
0.00000001
 40
0.0
 40
0.0
 40
0.0
 40
0.0
 40
0.5667921656737825
 40
1.0
 40
1.0
 40
1.0
 40
1.0
 10
10.67984614661726
 20
20.15536252429861
 30
0.0
 10
10.68355604245147
 20
20.15438900341308
 30
0.0
 10
10.69010146784526
 20
20.15267140577413
 30
0.0
 10
10.69605370031431
 20
20.14946985317151
 30
0.0
 10
10.69863225405164
 20
20.14808291550206
 30
0.0
  0
SPLINE
  5
22D
330
1F
100
AcDbEntity
  8
0
  6
Continuous
 62
     7
370
    25
100
AcDbSpline
210
0.0
220
0.0
230
1.0
 70
     8
 71
     3
 72
     9
 73
     5
 74
     0
 42
0.00000001
 43
0.00000001
 40
0.0
 40
0.0
 40
0.0
 40
0.0
 40
0.5560881808554844
 40
1.0
 40
1.0
 40
1.0
 40
1.0
 10
10.72218008194205
 20
19.98046944582858
 30
0.0
 10
10.71974440000037
 20
19.97775663187399
 30
0.0
 10
10.7153643717503
 20
19.97287824379099
 30
0.0
 10
10.70950453289305
 20
19.96997694013284
 30
0.0
 10
10.70690328116603
 20
19.96868901714807
 30
0.0
  0
SPLINE
  5
22E
330
1F
100
AcDbEntity
  8
0
  6
Continuous
 62
     7
370
    25
100
AcDbSpline
210
0.0
220
0.0
230
1.0
 70
     8
 71
     3
 72
     9
 73
     5
 74
     0
 42
0.00000001
 43
0.00000001
 40
0.0
 40
0.0
 40
0.0
 40
0.0
 40
0.5579042182885487
 40
1.0
 40
1.0
 40
1.0
 40
1.0
 10
10.59012960415033
 20
20.17791885322513
 30
0.0
 10
10.5852355543543
 20
20.17435182242699
 30
0.0
 10
10.57646335003034
 20
20.16795819663745
 30
0.0
 10
10.57029861843629
 20
20.159052021768
 30
0.0
 10
10.56757321660317
 20
20.15511463942703
 30
0.0
  0
SPLINE
  5
22F
330
1F
100
AcDbEntity
  8
0
  6
Continuous
 62
     7
370
    25
100
AcDbSpline
210
0.0
220
0.0
230
1.0
 70
     8
 71
     3
 72
     9
 73
     5
 74
     0
 42
0.00000001
 43
0.00000001
 40
0.0
 40
0.0
 40
0.0
 40
0.0
 40
0.5581563775260605
 40
1.0
 40
1.0
 40
1.0
 40
1.0
 10
10.69863225405164
 20
20.14808291550206
 30
0.0
 10
10.70165669205996
 20
20.14604170598134
 30
0.0
 10
10.70707531331038
 20
20.14238464928019
 30
0.0
 10
10.71094621033433
 20
20.13713484484855
 30
0.0
 10
10.71265654149761
 20
20.1348152522412
 30
0.0
  0
SPLINE
  5
230
330
1F
100
AcDbEntity
  8
0
  6
Continuous
 62
     7
370
    25
100
AcDbSpline
210
0.0
220
0.0
230
1.0
 70
     8
 71
     3
 72
    12
 73
     8
 74
     0
 42
0.00000001
 43
0.00000001
 40
0.0
 40
0.0
 40
0.0
 40
0.0
 40
0.2127649682794278
 40
0.4233051586768656
 40
0.6371633648581472
 40
0.8264777580874326
 40
1.0
 40
1.0
 40
1.0
 40
1.0
 10
10.71567017775042
 20
20.0253081413813
 30
0.0
 10
10.71844258936115
 20
20.02300769253585
 30
0.0
 10
10.72395842284767
 20
20.01843084949903
 30
0.0
 10
10.72798744058038
 20
20.00812857721651
 30
0.0
 10
10.72847263365631
 20
19.99785865481547
 30
0.0
 10
10.72697339553587
 20
19.98813298903735
 30
0.0
 10
10.72373080955479
 20
19.98294874701193
 30
0.0
 10
10.72218008194205
 20
19.98046944582858
 30
0.0
  0
SPLINE
  5
231
330
1F
100
AcDbEntity
  8
0
  6
Continuous
 62
     7
370
    25
100
AcDbSpline
210
0.0
220
0.0
230
1.0
 70
     8
 71
     3
 72
     9
 73
     5
 74
     0
 42
0.00000001
 43
0.00000001
 40
0.0
 40
0.0
 40
0.0
 40
0.0
 40
0.5458096279347718
 40
0.9999999999999999
 40
0.9999999999999999
 40
0.9999999999999999
 40
0.9999999999999999
 10
10.74698022409803
 20
20.05763582967772
 30
0.0
 10
10.74231332774481
 20
20.06058222740591
 30
0.0
 10
10.73376291728231
 20
20.06598044241968
 30
0.0
 10
10.72424571238336
 20
20.06937483240332
 30
0.0
 10
10.71992308954929
 20
20.07091653165292
 30
0.0
  0
SPLINE
  5
232
330
1F
100
AcDbEntity
  8
0
  6
Continuous
 62
     7
370
    25
100
AcDbSpline
210
0.0
220
0.0
230
1.0
 70
     8
 71
     3
 72
     9
 73
     5
 74
     0
 42
0.00000001
 43
0.00000001
 40
0.0
 40
0.0
 40
0.0
 40
0.0
 40
0.5814361705901551
 40
1.0
 40
1.0
 40
1.0
 40
1.0
 10
10.6585421728679
 20
20.08619326422439
 30
0.0
 10
10.65320374502529
 20
20.08744060810177
 30
0.0
 10
10.64402229379706
 20
20.0895858889434
 30
0.0
 10
10.63518430200705
 20
20.09285936877265
 30
0.0
 10
10.63148503831913
 20
20.09422952902549
 30
0.0
  0
SPLINE
  5
233
330
1F
100
AcDbEntity
  8
0
  6
Continuous
 62
     7
370
    25
100
AcDbSpline
210
0.0
220
0.0
230
1.0
 70
     8
 71
     3
 72
     9
 73
     5
 74
     0
 42
0.00000001
 43
0.00000001
 40
0.0
 40
0.0
 40
0.0
 40
0.0
 40
0.557370571563731
 40
0.9999999999999999
 40
0.9999999999999999
 40
0.9999999999999999
 40
0.9999999999999999
 10
10.71992308954928
 20
20.07091653165291
 30
0.0
 10
10.71416106625501
 20
20.07271322268981
 30
0.0
 10
10.70382319843736
 20
20.07593673524782
 30
0.0
 10
10.69327073556137
 20
20.07836200627233
 30
0.0
 10
10.68859990494997
 20
20.07943550259971
 30
0.0
  0
SPLINE
  5
234
330
1F
100
AcDbEntity
  8
0
  6
Continuous
 62
     7
370
    25
100
AcDbSpline
210
0.0
220
0.0
230
1.0
 70
     8
 71
     3
 72
     9
 73
     5
 74
     0
 42
0.00000001
 43
0.00000001
 40
0.0
 40
0.0
 40
0.0
 40
0.0
 40
0.5844516101951932
 40
1.0
 40
1.0
 40
1.0
 40
1.0
 10
10.63148503831913
 20
20.09422952902549
 30
0.0
 10
10.62729961042442
 20
20.09605004015973
 30
0.0
 10
10.62013831970044
 20
20.09916494497389
 30
0.0
 10
10.61416402263023
 20
20.1041664228868
 30
0.0
 10
10.6116814131025
 20
20.10624477898016
 30
0.0
  0
SPLINE
  5
235
330
1F
100
AcDbEntity
  8
0
  6
Continuous
 62
     7
370
    25
100
AcDbSpline
210
0.0
220
0.0
230
1.0
 70
     8
 71
     3
 72
     9
 73
     5
 74
     0
 42
0.00000001
 43
0.00000001
 40
0.0
 40
0.0
 40
0.0
 40
0.0
 40
0.5473376006429596
 40
1.0
 40
1.0
 40
1.0
 40
1.0
 10
10.60266668131532
 20
20.06063637626703
 30
0.0
 10
10.60996009261203
 20
20.05790114009052
 30
0.0
 10
10.62328534431799
 20
20.05290379261559
 30
0.0
 10
10.63720111979226
 20
20.04994665855537
 30
0.0
 10
10.64350026810735
 20
20.04860807515645
 30
0.0
  0
SPLINE
  5
236
330
1F
100
AcDbEntity
  8
0
  6
Continuous
 62
     7
370
    25
100
AcDbSpline
210
0.0
220
0.0
230
1.0
 70
     8
 71
     3
 72
     9
 73
     5
 74
     0
 42
0.00000001
 43
0.00000001
 40
0.0
 40
0.0
 40
0.0
 40
0.0
 40
0.5602072701445934
 40
1.0
 40
1.0
 40
1.0
 40
1.0
 10
10.76602730498687
 20
20.03684069763181
 30
0.0
 10
10.7630780176282
 20
20.04129529044931
 30
0.0
 10
10.75781338163391
 20
20.04924697736037
 30
0.0
 10
10.75028927256512
 20
20.05507340788985
 30
0.0
 10
10.74698022409803
 20
20.05763582967772
 30
0.0
  0
SPLINE
  5
237
330
1F
100
AcDbEntity
  8
0
  6
Continuous
 62
     7
370
    25
100
AcDbSpline
210
0.0
220
0.0
230
1.0
 70
     8
 71
     3
 72
     9
 73
     5
 74
     0
 42
0.00000001
 43
0.00000001
 40
0.0
 40
0.0
 40
0.0
 40
0.0
 40
0.5690334213213804
 40
1.0
 40
1.0
 40
1.0
 40
1.0
 10
10.6219484591552
 20
19.92909477121097
 30
0.0
 10
10.63721462237472
 20
19.92672682010005
 30
0.0
 10
10.66404285890267
 20
19.92256546327602
 30
0.0
 10
10.6908313939123
 20
19.92660866787007
 30
0.0
 10
10.70237635719321
 20
19.92835115392086
 30
0.0
  0
SPLINE
  5
238
330
1F
100
AcDbEntity
  8
0
  6
Continuous
 62
     7
370
    25
100
AcDbSpline
210
0.0
220
0.0
230
1.0
 70
     8
 71
     3
 72
    10
 73
     6
 74
     0
 42
0.00000001
 43
0.00000001
 40
0.0
 40
0.0
 40
0.0
 40
0.0
 40
0.2927967636218614
 40
0.5952842632326006
 40
1.0
 40
1.0
 40
1.0
 40
1.0
 10
10.69612742645609
 20
20.19144741518886
 30
0.0
 10
10.68885447146691
 20
20.19259361795437
 30
0.0
 10
10.67406784746636
 20
20.19492395952078
 30
0.0
 10
10.64879191764169
 20
20.19597064227406
 30
0.0
 10
10.63123768736481
 20
20.19277018045088
 30
0.0
 10
10.62119181529516
 20
20.19093863161436
 30
0.0
  0
SPLINE
  5
239
330
1F
100
AcDbEntity
  8
0
  6
Continuous
 62
     7
370
    25
100
AcDbSpline
210
0.0
220
0.0
230
1.0
 70
     8
 71
     3
 72
     9
 73
     5
 74
     0
 42
0.00000001
 43
0.00000001
 40
0.0
 40
0.0
 40
0.0
 40
0.0
 40
0.564920835372408
 40
1.0
 40
1.0
 40
1.0
 40
1.0
 10
10.56332030480437
 20
19.97093290773284
 30
0.0
 10
10.56696861174164
 20
19.96502847327289
 30
0.0
 10
10.57342669703224
 20
19.95457668234884
 30
0.0
 10
10.5831475853732
 20
19.94711999988071
 30
0.0
 10
10.58737694135202
 20
19.94387575270158
 30
0.0
  0
SPLINE
  5
23A
330
1F
100
AcDbEntity
  8
0
  6
Continuous
 62
     7
370
    25
100
AcDbSpline
210
0.0
220
0.0
230
1.0
 70
     8
 71
     3
 72
     9
 73
     5
 74
     0
 42
0.00000001
 43
0.00000001
 40
0.0
 40
0.0
 40
0.0
 40
0.0
 40
0.5492636938377242
 40
1.0
 40
1.0
 40
1.0
 40
1.0
 10
10.57133045799653
 20
20.08243604918903
 30
0.0
 10
10.57642031592755
 20
20.07749154843873
 30
0.0
 10
10.58568700875308
 20
20.06848949568013
 30
0.0
 10
10.5973911844121
 20
20.06307630006371
 30
0.0
 10
10.60266668131532
 20
20.06063637626703
 30
0.0
  0
SPLINE
  5
23B
330
1F
100
AcDbEntity
  8
0
  6
Continuous
 62
     7
370
    25
100
AcDbSpline
210
0.0
220
0.0
230
1.0
 70
     8
 71
     3
 72
     9
 73
     5
 74
     0
 42
0.00000001
 43
0.00000001
 40
0.0
 40
0.0
 40
0.0
 40
0.0
 40
0.570390560777048
 40
1.0
 40
1.0
 40
1.0
 40
1.0
 10
10.62119181529516
 20
20.19093863161436
 30
0.0
 10
10.61498850985985
 20
20.18915049393109
 30
0.0
 10
10.60411296972669
 20
20.18601555831638
 30
0.0
 10
10.59433172095153
 20
20.18035197995078
 30
0.0
 10
10.59012960415033
 20
20.17791885322513
 30
0.0
  0
SPLINE
  5
23C
330
1F
100
AcDbEntity
  8
0
  6
Continuous
 62
     7
370
    25
100
AcDbSpline
210
0.0
220
0.0
230
1.0
 70
     8
 71
     3
 72
     9
 73
     5
 74
     0
 42
0.00000001
 43
0.00000001
 40
0.0
 40
0.0
 40
0.0
 40
0.0
 40
0.5888612228155907
 40
1.0
 40
1.0
 40
1.0
 40
1.0
 10
10.55328795570269
 20
20.01177956075528
 30
0.0
 10
10.55396331365066
 20
20.00341592831771
 30
0.0
 10
10.55511020178289
 20
19.9892128663508
 30
0.0
 10
10.5609282709581
 20
19.97625881894348
 30
0.0
 10
10.56332030480437
 20
19.97093290773284
 30
0.0
  0
SPLINE
  5
23D
330
1F
100
AcDbEntity
  8
0
  6
Continuous
 62
     7
370
    25
100
AcDbSpline
210
0.0
220
0.0
230
1.0
 70
     8
 71
     3
 72
    11
 73
     7
 74
     0
 42
0.00000001
 43
0.00000001
 40
0.0
 40
0.0
 40
0.0
 40
0.0
 40
0.298604717633656
 40
0.6022291801903263
 40
0.8105540532955691
 40
1.0
 40
1.0
 40
1.0
 40
1.0
 10
10.6116814131025
 20
20.10624477898016
 30
0.0
 10
10.6092296754543
 20
20.10919242286274
 30
0.0
 10
10.60428498480904
 20
20.11513726249208
 30
0.0
 10
10.60355509480766
 20
20.1257411650297
 30
0.0
 10
10.60490576403673
 20
20.13455529690409
 30
0.0
 10
10.60762196804093
 20
20.13880527555108
 30
0.0
 10
10.60891561205249
 20
20.14082940901727
 30
0.0
  0
SPLINE
  5
23E
330
1F
100
AcDbEntity
  8
0
  6
Continuous
 62
     7
370
    25
100
AcDbSpline
210
0.0
220
0.0
230
1.0
 70
     8
 71
     3
 72
    11
 73
     7
 74
     0
 42
0.00000001
 43
0.00000001
 40
0.0
 40
0.0
 40
0.0
 40
0.0
 40
0.2450422980411881
 40
0.5318742732901325
 40
0.7808311536343184
 40
1.0
 40
1.0
 40
1.0
 40
1.0
 10
10.56757321660317
 20
20.15511463942703
 30
0.0
 10
10.56481746675245
 20
20.14940199256794
 30
0.0
 10
10.5588359996305
 20
20.1370024602381
 30
0.0
 10
10.55833863638466
 20
20.11663712808202
 30
0.0
 10
10.56116536887797
 20
20.097084128097
 30
0.0
 10
10.56808894999895
 20
20.08710712136317
 30
0.0
 10
10.57133045799653
 20
20.08243604918903
 30
0.0
  0
LWPOLYLINE
  5
261
330
1F
100
AcDbEntity
  8
0
  6
Continuous
 62
     7
370
    25
100
AcDbPolyline
 90
        3
 70
   128
 43
0.0
 10
-11.75
 20
-19.746426813
 10
-11.7422714065
 20
-19.8741956941
 10
-11.7192924531
 20
-19.9997192249
  0
LWPOLYLINE
  5
266
330
1F
100
AcDbEntity
  8
0
  6
Continuous
 62
     7
370
    25
100
AcDbPolyline
 90
        3
 70
   128
 43
0.0
 10
11.7192924531
 20
-19.9997192249
 10
11.7422714065
 20
-19.8741956941
 10
11.75
 20
-19.746426813
  0
LINE
  5
2B7
330
1F
100
AcDbEntity
  8
0
  6
Continuous
 62
     7
370
    25
100
AcDbLine
 10
-8.9282571387
 20
-20.737676813
 30
0.0
 11
-8.9282571387
 21
-20.860801813
 31
0.0
  0
LINE
  5
2B8
330
1F
100
AcDbEntity
  8
0
  6
Continuous
 62
     7
370
    25
100
AcDbLine
 10
8.9282571387
 20
-20.860801813
 30
0.0
 11
8.9282571387
 21
-20.737676813
 31
0.0
  0
LINE
  5
2B9
330
1F
100
AcDbEntity
  8
0
  6
Continuous
 62
     7
370
    25
100
AcDbLine
 10
-8.8970071387
 20
-20.706426813
 30
0.0
 11
-8.9282571387
 21
-20.737676813
 31
0.0
  0
LINE
  5
2BA
330
1F
100
AcDbEntity
  8
0
  6
Continuous
 62
     7
370
    25
100
AcDbLine
 10
8.9282571387
 20
-20.737676813
 30
0.0
 11
8.8970071387
 21
-20.706426813
 31
0.0
  0
LINE
  5
2BB
330
1F
100
AcDbEntity
  8
0
  6
Continuous
 62
     7
370
    25
100
AcDbLine
 10
11.75
 20
0.3907958841
 30
0.0
 11
-11.75
 21
0.3907958841
 31
0.0
  0
LINE
  5
2BC
330
1F
100
AcDbEntity
  8
0
  6
Continuous
 62
     7
370
    25
100
AcDbLine
 10
-11.75
 20
-0.3779665719
 30
0.0
 11
11.75
 21
-0.3779665719
 31
0.0
  0
LINE
  5
2BD
330
1F
100
AcDbEntity
  8
0
  6
Continuous
 62
     7
370
    25
100
AcDbLine
 10
-11.75
 20
1.4842933848
 30
0.0
 11
-11.72
 21
1.4842933848
 31
0.0
  0
LINE
  5
2BE
330
1F
100
AcDbEntity
  8
0
  6
Continuous
 62
     7
370
    25
100
AcDbLine
 10
11.72
 20
1.4842933848
 30
0.0
 11
11.75
 21
1.4842933848
 31
0.0
  0
LINE
  5
2BF
330
1F
100
AcDbEntity
  8
0
  6
Continuous
 62
     7
370
    25
100
AcDbLine
 10
-11.75
 20
0.6143461541
 30
0.0
 11
11.75
 21
0.6143461541
 31
0.0
  0
LINE
  5
2C0
330
1F
100
AcDbEntity
  8
0
  6
Continuous
 62
     7
370
    25
100
AcDbLine
 10
-11.75
 20
0.6068852595
 30
0.0
 11
11.75
 21
0.6068852595
 31
0.0
  0
LINE
  5
2C1
330
1F
100
AcDbEntity
  8
0
  6
Continuous
 62
     7
370
    25
100
AcDbLine
 10
-9.0657452523
 20
-21.017051813
 30
0.0
 11
-9.0519719632
 21
-20.985801813
 31
0.0
  0
LINE
  5
2C2
330
1F
100
AcDbEntity
  8
0
  6
Continuous
 62
     7
370
    25
100
AcDbLine
 10
9.0657452523
 20
-21.017051813
 30
0.0
 11
9.0519719632
 21
-20.985801813
 31
0.0
  0
LINE
  5
2C3
330
1F
100
AcDbEntity
  8
0
  6
Continuous
 62
     7
370
    25
100
AcDbLine
 10
-9.625
 20
-21.050176813
 30
0.0
 11
-9.625
 21
-20.932676813
 31
0.0
  0
LINE
  5
2C4
330
1F
100
AcDbEntity
  8
0
  6
Continuous
 62
     7
370
    25
100
AcDbLine
 10
-9.0657452523
 20
-21.017051813
 30
0.0
 11
-9.625
 21
-21.017051813
 31
0.0
  0
LINE
  5
2C5
330
1F
100
AcDbEntity
  8
0
  6
Continuous
 62
     7
370
    25
100
AcDbLine
 10
-8.867670803
 20
-20.737676813
 30
0.0
 11
-8.867670803
 21
-20.860801813
 31
0.0
  0
LINE
  5
2C6
330
1F
100
AcDbEntity
  8
0
  6
Continuous
 62
     7
370
    25
100
AcDbLine
 10
8.9282571387
 20
-20.737676813
 30
0.0
 11
-8.9282571387
 21
-20.737676813
 31
0.0
  0
LINE
  5
2C7
330
1F
100
AcDbEntity
  8
0
  6
Continuous
 62
     7
370
    25
100
AcDbLine
 10
-8.625
 20
-20.706426813
 30
0.0
 11
-8.625
 21
-20.893926813
 31
0.0
  0
LINE
  5
2C8
330
1F
100
AcDbEntity
  8
0
  6
Continuous
 62
     7
370
    25
100
AcDbLine
 10
-9.625
 20
-21.050176813
 30
0.0
 11
-9.169578807
 21
-21.050176813
 31
0.0
  0
LINE
  5
2C9
330
1F
100
AcDbEntity
  8
0
  6
Continuous
 62
     7
370
    25
100
AcDbLine
 10
9.59375
 20
-21.081426813
 30
0.0
 11
-9.59375
 21
-21.081426813
 31
0.0
  0
LINE
  5
2CA
330
1F
100
AcDbEntity
  8
0
  6
Continuous
 62
     7
370
    25
100
AcDbLine
 10
-8.625
 20
-20.893926813
 30
0.0
 11
8.625
 21
-20.893926813
 31
0.0
  0
LINE
  5
2CB
330
1F
100
AcDbEntity
  8
0
  6
Continuous
 62
     7
370
    25
100
AcDbLine
 10
-9.169578807
 20
-21.050176813
 30
0.0
 11
-9.1525607193
 21
-21.081426813
 31
0.0
  0
LINE
  5
2CC
330
1F
100
AcDbEntity
  8
0
  6
Continuous
 62
     7
370
    25
100
AcDbLine
 10
8.625
 20
-20.893926813
 30
0.0
 11
8.625
 21
-20.706426813
 31
0.0
  0
LINE
  5
2CD
330
1F
100
AcDbEntity
  8
0
  6
Continuous
 62
     7
370
    25
100
AcDbLine
 10
9.169578807
 20
-21.050176813
 30
0.0
 11
9.1525607193
 21
-21.081426813
 31
0.0
  0
LINE
  5
2CE
330
1F
100
AcDbEntity
  8
0
  6
Continuous
 62
     7
370
    25
100
AcDbLine
 10
8.867670803
 20
-20.860801813
 30
0.0
 11
8.867670803
 21
-20.737676813
 31
0.0
  0
LINE
  5
2CF
330
1F
100
AcDbEntity
  8
0
  6
Continuous
 62
     7
370
    25
100
AcDbLine
 10
9.625
 20
-21.017051813
 30
0.0
 11
9.0657452523
 21
-21.017051813
 31
0.0
  0
LINE
  5
2D0
330
1F
100
AcDbEntity
  8
0
  6
Continuous
 62
     7
370
    25
100
AcDbLine
 10
9.625
 20
-20.932676813
 30
0.0
 11
9.625
 21
-21.050176813
 31
0.0
  0
LINE
  5
2D1
330
1F
100
AcDbEntity
  8
0
  6
Continuous
 62
     7
370
    25
100
AcDbLine
 10
9.169578807
 20
-21.050176813
 30
0.0
 11
9.625
 21
-21.050176813
 31
0.0
  0
LINE
  5
2D2
330
1F
100
AcDbEntity
  8
0
  6
Continuous
 62
     7
370
    25
100
AcDbLine
 10
-8.8970071387
 20
-20.706426813
 30
0.0
 11
8.8970071387
 21
-20.706426813
 31
0.0
  0
LINE
  5
2D3
330
1F
100
AcDbEntity
  8
0
  6
Continuous
 62
     7
370
    25
100
AcDbLine
 10
-8.867670803
 20
-20.737676813
 30
0.0
 11
-8.8600873404
 21
-20.706426813
 31
0.0
  0
LINE
  5
2D4
330
1F
100
AcDbEntity
  8
0
  6
Continuous
 62
     7
370
    25
100
AcDbLine
 10
8.8600873404
 20
-20.706426813
 30
0.0
 11
8.867670803
 21
-20.737676813
 31
0.0
  0
LINE
  5
2D5
330
1F
100
AcDbEntity
  8
0
  6
Continuous
 62
     7
370
    25
100
AcDbLine
 10
-9.625
 20
-21.017051813
 30
0.0
 11
-9.59375
 21
-20.985801813
 31
0.0
  0
LINE
  5
2D6
330
1F
100
AcDbEntity
  8
0
  6
Continuous
 62
     7
370
    25
100
AcDbLine
 10
-9.59375
 20
-20.985801813
 30
0.0
 11
-9.0519719632
 21
-20.985801813
 31
0.0
  0
LINE
  5
2D7
330
1F
100
AcDbEntity
  8
0
  6
Continuous
 62
     7
370
    25
100
AcDbLine
 10
9.0519719632
 20
-20.985801813
 30
0.0
 11
9.59375
 21
-20.985801813
 31
0.0
  0
LINE
  5
2D8
330
1F
100
AcDbEntity
  8
0
  6
Continuous
 62
     7
370
    25
100
AcDbLine
 10
9.625
 20
-21.017051813
 30
0.0
 11
9.59375
 21
-20.985801813
 31
0.0
  0
LINE
  5
2D9
330
1F
100
AcDbEntity
  8
0
  6
Continuous
 62
     7
370
    25
100
AcDbLine
 10
-9.625
 20
-21.050176813
 30
0.0
 11
-9.59375
 21
-21.081426813
 31
0.0
  0
LINE
  5
2DA
330
1F
100
AcDbEntity
  8
0
  6
Continuous
 62
     7
370
    25
100
AcDbLine
 10
9.625
 20
-21.050176813
 30
0.0
 11
9.59375
 21
-21.081426813
 31
0.0
  0
LINE
  5
2DB
330
1F
100
AcDbEntity
  8
0
  6
Continuous
 62
     7
370
    25
100
AcDbLine
 10
-9.59375
 20
-20.932676813
 30
0.0
 11
-9.59375
 21
-20.985801813
 31
0.0
  0
LINE
  5
2DC
330
1F
100
AcDbEntity
  8
0
  6
Continuous
 62
     7
370
    25
100
AcDbLine
 10
9.59375
 20
-20.985801813
 30
0.0
 11
9.59375
 21
-20.932676813
 31
0.0
  0
LINE
  5
2DD
330
1F
100
AcDbEntity
  8
0
  6
Continuous
 62
     7
370
    25
100
AcDbLine
 10
11.72
 20
-19.962676813
 30
0.0
 11
11.72
 21
-0.555176813
 31
0.0
  0
LINE
  5
2DE
330
1F
100
AcDbEntity
  8
0
  6
Continuous
 62
     7
370
    25
100
AcDbLine
 10
-10.75
 20
-20.932676813
 30
0.0
 11
-8.9509879627
 21
-20.932676813
 31
0.0
  0
LINE
  5
2DF
330
1F
100
AcDbEntity
  8
0
  6
Continuous
 62
     7
370
    25
100
AcDbLine
 10
8.9509879627
 20
-20.932676813
 30
0.0
 11
10.75
 21
-20.932676813
 31
0.0
  0
LINE
  5
2E0
330
1F
100
AcDbEntity
  8
0
  6
Continuous
 62
     7
370
    25
100
AcDbLine
 10
11.72
 20
-0.555176813
 30
0.0
 11
-11.72
 21
-0.555176813
 31
0.0
  0
LINE
  5
2E1
330
1F
100
AcDbEntity
  8
0
  6
Continuous
 62
     7
370
    25
100
AcDbLine
 10
-11.72
 20
-0.555176813
 30
0.0
 11
-11.72
 21
-19.962676813
 31
0.0
  0
LINE
  5
2E2
330
1F
100
AcDbEntity
  8
0
  6
Continuous
 62
     7
370
    25
100
AcDbLine
 10
-11.72
 20
20.03125
 30
0.0
 11
-11.72
 21
0.62375
 31
0.0
  0
LINE
  5
2E3
330
1F
100
AcDbEntity
  8
0
  6
Continuous
 62
     7
370
    25
100
AcDbLine
 10
10.75
 20
21.00125
 30
0.0
 11
-10.75
 21
21.00125
 31
0.0
  0
LINE
  5
2E4
330
1F
100
AcDbEntity
  8
0
  6
Continuous
 62
     7
370
    25
100
AcDbLine
 10
-11.72
 20
0.62375
 30
0.0
 11
11.72
 21
0.62375
 31
0.0
  0
LINE
  5
2E5
330
1F
100
AcDbEntity
  8
0
  6
Continuous
 62
     7
370
    25
100
AcDbLine
 10
11.72
 20
0.62375
 30
0.0
 11
11.72
 21
20.03125
 31
0.0
  0
LINE
  5
2E6
330
1F
100
AcDbEntity
  8
0
  6
Continuous
 62
     7
370
    25
100
AcDbLine
 10
-10.75
 20
-20.931426813
 30
0.0
 11
-10.75
 21
-20.901426813
 31
0.0
  0
LINE
  5
2E7
330
1F
100
AcDbEntity
  8
0
  6
Continuous
 62
     7
370
    25
100
AcDbLine
 10
10.75
 20
-20.931426813
 30
0.0
 11
10.75
 21
-20.901426813
 31
0.0
  0
LINE
  5
2E8
330
1F
100
AcDbEntity
  8
0
  6
Continuous
 62
     7
370
    25
100
AcDbLine
 10
11.72
 20
-19.931426813
 30
0.0
 11
11.75
 21
-19.931426813
 31
0.0
  0
LINE
  5
2E9
330
1F
100
AcDbEntity
  8
0
  6
Continuous
 62
     7
370
    25
100
AcDbLine
 10
-11.75
 20
-19.931426813
 30
0.0
 11
-11.72
 21
-19.931426813
 31
0.0
  0
LINE
  5
2EA
330
1F
100
AcDbEntity
  8
0
  6
Continuous
 62
     7
370
    25
100
AcDbLine
 10
-11.75
 20
-0.556426813
 30
0.0
 11
-11.72
 21
-0.586426813
 31
0.0
  0
LINE
  5
2EB
330
1F
100
AcDbEntity
  8
0
  6
Continuous
 62
     7
370
    25
100
AcDbLine
 10
11.72
 20
-0.586426813
 30
0.0
 11
11.75
 21
-0.556426813
 31
0.0
  0
LINE
  5
2EC
330
1F
100
AcDbEntity
  8
0
  6
Continuous
 62
     7
370
    25
100
AcDbLine
 10
-11.72
 20
-0.586426813
 30
0.0
 11
11.72
 21
-0.586426813
 31
0.0
  0
LINE
  5
2ED
330
1F
100
AcDbEntity
  8
0
  6
Continuous
 62
     7
370
    25
100
AcDbLine
 10
10.75
 20
-20.931426813
 30
0.0
 11
8.9501207757
 21
-20.931426813
 31
0.0
  0
LINE
  5
2EE
330
1F
100
AcDbEntity
  8
0
  6
Continuous
 62
     7
370
    25
100
AcDbLine
 10
-8.9501207757
 20
-20.931426813
 30
0.0
 11
-10.75
 21
-20.931426813
 31
0.0
  0
LINE
  5
2EF
330
1F
100
AcDbEntity
  8
0
  6
Continuous
 62
     7
370
    25
100
AcDbLine
 10
11.75
 20
-0.556426813
 30
0.0
 11
-11.75
 21
-0.556426813
 31
0.0
  0
LINE
  5
2F0
330
1F
100
AcDbEntity
  8
0
  6
Continuous
 62
     7
370
    25
100
AcDbLine
 10
10.75
 20
21.0
 30
0.0
 11
10.75
 21
20.97
 31
0.0
  0
LINE
  5
2F1
330
1F
100
AcDbEntity
  8
0
  6
Continuous
 62
     7
370
    25
100
AcDbLine
 10
10.75
 20
20.97
 30
0.0
 11
-10.75
 21
20.97
 31
0.0
  0
LINE
  5
2F2
330
1F
100
AcDbEntity
  8
0
  6
Continuous
 62
     7
370
    25
100
AcDbLine
 10
-10.75
 20
21.0
 30
0.0
 11
-10.75
 21
20.97
 31
0.0
  0
LINE
  5
2F3
330
1F
100
AcDbEntity
  8
0
  6
Continuous
 62
     7
370
    25
100
AcDbLine
 10
-12.0
 20
20.0
 30
0.0
 11
-11.72
 21
20.0
 31
0.0
  0
LINE
  5
2F4
330
1F
100
AcDbEntity
  8
0
  6
Continuous
 62
     7
370
    25
100
AcDbLine
 10
11.72
 20
20.0
 30
0.0
 11
12.0
 21
20.0
 31
0.0
  0
LINE
  5
2F5
330
1F
100
AcDbEntity
  8
0
  6
Continuous
 62
     7
370
    25
100
AcDbLine
 10
11.75
 20
0.625
 30
0.0
 11
11.72
 21
0.655
 31
0.0
  0
LINE
  5
2F6
330
1F
100
AcDbEntity
  8
0
  6
Continuous
 62
     7
370
    25
100
AcDbLine
 10
-11.72
 20
0.655
 30
0.0
 11
-11.75
 21
0.625
 31
0.0
  0
LINE
  5
2F7
330
1F
100
AcDbEntity
  8
0
  6
Continuous
 62
     7
370
    25
100
AcDbLine
 10
11.72
 20
0.655
 30
0.0
 11
-11.72
 21
0.655
 31
0.0
  0
LINE
  5
2F8
330
1F
100
AcDbEntity
  8
0
  6
Continuous
 62
     7
370
    25
100
AcDbLine
 10
10.75
 20
21.0
 30
0.0
 11
-10.75
 21
21.0
 31
0.0
  0
LINE
  5
2F9
330
1F
100
AcDbEntity
  8
0
  6
Continuous
 62
     7
370
    25
100
AcDbLine
 10
-11.75
 20
0.625
 30
0.0
 11
11.75
 21
0.625
 31
0.0
  0
LINE
  5
2FA
330
1F
100
AcDbEntity
  8
0
  6
Continuous
 62
     7
370
    25
100
AcDbLine
 10
11.25
 20
20.4725045458
 30
0.0
 11
11.1583484861
 21
20.4083484861
 31
0.0
  0
LINE
  5
2FB
330
1F
100
AcDbEntity
  8
0
  6
Continuous
 62
     7
370
    25
100
AcDbLine
 10
11.1583484861
 20
20.4083484861
 30
0.0
 11
11.2225045458
 21
20.5
 31
0.0
  0
LINE
  5
2FC
330
1F
100
AcDbEntity
  8
0
  6
Continuous
 62
     7
370
    25
100
AcDbLine
 10
11.1583484861
 20
19.8416515139
 30
0.0
 11
11.25
 21
19.7774954542
 31
0.0
  0
LINE
  5
2FD
330
1F
100
AcDbEntity
  8
0
  6
Continuous
 62
     7
370
    25
100
AcDbLine
 10
9.0274954542
 20
20.5
 30
0.0
 11
9.0916515139
 21
20.4083484861
 31
0.0
  0
LINE
  5
2FE
330
1F
100
AcDbEntity
  8
0
  6
Continuous
 62
     7
370
    25
100
AcDbLine
 10
9.0916515139
 20
19.8416515139
 30
0.0
 11
9.0274954542
 21
19.75
 31
0.0
  0
LINE
  5
2FF
330
1F
100
AcDbEntity
  8
0
  6
Continuous
 62
     7
370
    25
100
AcDbLine
 10
11.2225045458
 20
19.75
 30
0.0
 11
11.1583484861
 21
19.8416515139
 31
0.0
  0
LINE
  5
300
330
1F
100
AcDbEntity
  8
0
  6
Continuous
 62
     7
370
    25
100
AcDbLine
 10
9.0
 20
19.7774954542
 30
0.0
 11
9.0916515139
 21
19.8416515139
 31
0.0
  0
LINE
  5
301
330
1F
100
AcDbEntity
  8
0
  6
Continuous
 62
     7
370
    25
100
AcDbLine
 10
9.0916515139
 20
20.4083484861
 30
0.0
 11
9.0
 21
20.4725045458
 31
0.0
  0
LINE
  5
302
330
1F
100
AcDbEntity
  8
0
  6
Continuous
 62
     7
370
    25
100
AcDbLine
 10
9.0916515139
 20
20.4083484861
 30
0.0
 11
9.0916515139
 21
19.8416515139
 31
0.0
  0
LINE
  5
303
330
1F
100
AcDbEntity
  8
0
  6
Continuous
 62
     7
370
    25
100
AcDbLine
 10
9.0916515139
 20
19.8416515139
 30
0.0
 11
11.1583484861
 21
19.8416515139
 31
0.0
  0
LINE
  5
304
330
1F
100
AcDbEntity
  8
0
  6
Continuous
 62
     7
370
    25
100
AcDbLine
 10
11.1583484861
 20
20.4083484861
 30
0.0
 11
9.0916515139
 21
20.4083484861
 31
0.0
  0
LINE
  5
305
330
1F
100
AcDbEntity
  8
0
  6
Continuous
 62
     7
370
    25
100
AcDbLine
 10
11.1583484861
 20
19.8416515139
 30
0.0
 11
11.1583484861
 21
20.4083484861
 31
0.0
  0
LINE
  5
306
330
1F
100
AcDbEntity
  8
0
  6
Continuous
 62
     7
370
    25
100
AcDbLine
 10
9.0
 20
20.4725045458
 30
0.0
 11
9.0
 21
19.7774954542
 31
0.0
  0
LINE
  5
307
330
1F
100
AcDbEntity
  8
0
  6
Continuous
 62
     7
370
    25
100
AcDbLine
 10
9.0274954542
 20
19.75
 30
0.0
 11
11.2225045458
 21
19.75
 31
0.0
  0
LINE
  5
308
330
1F
100
AcDbEntity
  8
0
  6
Continuous
 62
     7
370
    25
100
AcDbLine
 10
11.2225045458
 20
20.5
 30
0.0
 11
9.0274954542
 21
20.5
 31
0.0
  0
LINE
  5
309
330
1F
100
AcDbEntity
  8
0
  6
Continuous
 62
     7
370
    25
100
AcDbLine
 10
11.25
 20
19.7774954542
 30
0.0
 11
11.25
 21
20.4725045458
 31
0.0
  0
LINE
  5
30A
330
1F
100
AcDbEntity
  8
0
  6
Continuous
 62
     7
370
    25
100
AcDbLine
 10
9.5307789068
 20
20.1059942938
 30
0.0
 11
9.5748739899
 21
20.1059942938
 31
0.0
  0
LINE
  5
30B
330
1F
100
AcDbEntity
  8
0
  6
Continuous
 62
     7
370
    25
100
AcDbLine
 10
9.5763742638
 20
20.0248097838
 30
0.0
 11
9.5327879645
 21
20.0248097838
 31
0.0
  0
LINE
  5
30C
330
1F
100
AcDbEntity
  8
0
  6
Continuous
 62
     7
370
    25
100
AcDbLine
 10
9.691806846
 20
20.0332425688
 30
0.0
 11
9.6922728873
 21
20.2876795919
 31
0.0
  0
LINE
  5
30D
330
1F
100
AcDbEntity
  8
0
  6
Continuous
 62
     7
370
    25
100
AcDbLine
 10
9.6922728873
 20
20.2876795919
 30
0.0
 11
9.6510578592
 21
20.2876795919
 31
0.0
  0
LINE
  5
30E
330
1F
100
AcDbEntity
  8
0
  6
Continuous
 62
     7
370
    25
100
AcDbLine
 10
9.7177512682
 20
19.9309822584
 30
0.0
 11
9.7177512682
 21
19.9643289629
 31
0.0
  0
LINE
  5
30F
330
1F
100
AcDbEntity
  8
0
  6
Continuous
 62
     7
370
    25
100
AcDbLine
 10
10.012744797
 20
19.9310960024
 30
0.0
 11
10.012744797
 21
19.9641673142
 31
0.0
  0
LINE
  5
310
330
1F
100
AcDbEntity
  8
0
  6
Continuous
 62
     7
370
    25
100
AcDbLine
 10
9.9861964213
 20
19.9911853344
 30
0.0
 11
9.9861964213
 21
20.1241880779
 31
0.0
  0
LINE
  5
311
330
1F
100
AcDbEntity
  8
0
  6
Continuous
 62
     7
370
    25
100
AcDbLine
 10
9.7792103821
 20
20.1085069337
 30
0.0
 11
9.8218182799
 21
20.1085069337
 31
0.0
  0
LINE
  5
312
330
1F
100
AcDbEntity
  8
0
  6
Continuous
 62
     7
370
    25
100
AcDbLine
 10
9.9435885734
 20
20.0205124699
 30
0.0
 11
9.9435885734
 21
20.0639030719
 31
0.0
  0
LINE
  5
313
330
1F
100
AcDbEntity
  8
0
  6
Continuous
 62
     7
370
    25
100
AcDbLine
 10
10.1159221253
 20
20.1345660983
 30
0.0
 11
10.1149175965
 21
20.1345660983
 31
0.0
  0
LINE
  5
314
330
1F
100
AcDbEntity
  8
0
  6
Continuous
 62
     7
370
    25
100
AcDbLine
 10
10.1149175965
 20
20.1345660983
 30
0.0
 11
10.1149175965
 21
20.1891892044
 31
0.0
  0
LINE
  5
315
330
1F
100
AcDbEntity
  8
0
  6
Continuous
 62
     7
370
    25
100
AcDbLine
 10
10.0748275651
 20
19.9301110693
 30
0.0
 11
10.1174223743
 21
19.9301110693
 31
0.0
  0
LINE
  5
316
330
1F
100
AcDbEntity
  8
0
  6
Continuous
 62
     7
370
    25
100
AcDbLine
 10
10.0748275651
 20
20.1891892044
 30
0.0
 11
10.0748275651
 21
19.9301110693
 31
0.0
  0
LINE
  5
317
330
1F
100
AcDbEntity
  8
0
  6
Continuous
 62
     7
370
    25
100
AcDbLine
 10
10.1174223743
 20
19.9301110693
 30
0.0
 11
10.1174223743
 21
20.0453714134
 31
0.0
  0
LINE
  5
318
330
1F
100
AcDbEntity
  8
0
  6
Continuous
 62
     7
370
    25
100
AcDbLine
 10
10.1149175965
 20
20.1891892044
 30
0.0
 11
10.0748275651
 21
20.1891892044
 31
0.0
  0
LINE
  5
319
330
1F
100
AcDbEntity
  8
0
  6
Continuous
 62
     7
370
    25
100
AcDbLine
 10
10.2111309546
 20
20.1501037421
 30
0.0
 11
10.2111309546
 21
20.1952033363
 31
0.0
  0
LINE
  5
31A
330
1F
100
AcDbEntity
  8
0
  6
Continuous
 62
     7
370
    25
100
AcDbLine
 10
10.4390947508
 20
20.1891839541
 30
0.0
 11
10.4390947508
 21
20.0428613613
 31
0.0
  0
LINE
  5
31B
330
1F
100
AcDbEntity
  8
0
  6
Continuous
 62
     7
370
    25
100
AcDbLine
 10
10.48168956
 20
20.1891839541
 30
0.0
 11
10.4390947508
 21
20.1891839541
 31
0.0
  0
LINE
  5
31C
330
1F
100
AcDbEntity
  8
0
  6
Continuous
 62
     7
370
    25
100
AcDbLine
 10
10.48168956
 20
19.9301058287
 30
0.0
 11
10.48168956
 21
20.1891839541
 31
0.0
  0
LINE
  5
31D
330
1F
100
AcDbEntity
  8
0
  6
Continuous
 62
     7
370
    25
100
AcDbLine
 10
10.3097969358
 20
20.0137821045
 30
0.0
 11
10.3097969358
 21
20.1891839541
 31
0.0
  0
LINE
  5
31E
330
1F
100
AcDbEntity
  8
0
  6
Continuous
 62
     7
370
    25
100
AcDbLine
 10
10.4415995784
 20
19.9301058287
 30
0.0
 11
10.48168956
 21
19.9301058287
 31
0.0
  0
LINE
  5
31F
330
1F
100
AcDbEntity
  8
0
  6
Continuous
 62
     7
370
    25
100
AcDbLine
 10
10.3097969358
 20
20.1891839541
 30
0.0
 11
10.2672021265
 21
20.1891839541
 31
0.0
  0
LINE
  5
320
330
1F
100
AcDbEntity
  8
0
  6
Continuous
 62
     7
370
    25
100
AcDbLine
 10
10.2672021265
 20
20.1891839541
 30
0.0
 11
10.2672021265
 21
20.0188047653
 31
0.0
  0
LINE
  5
321
330
1F
100
AcDbEntity
  8
0
  6
Continuous
 62
     7
370
    25
100
AcDbLine
 10
10.4405949998
 20
19.9711873057
 30
0.0
 11
10.4415995784
 21
19.9711873057
 31
0.0
  0
LINE
  5
322
330
1F
100
AcDbEntity
  8
0
  6
Continuous
 62
     7
370
    25
100
AcDbLine
 10
10.4415995784
 20
19.9711873057
 30
0.0
 11
10.4415995784
 21
19.9301058287
 31
0.0
  0
LINE
  5
323
330
1F
100
AcDbEntity
  8
0
  6
Continuous
 62
     7
370
    25
100
AcDbLine
 10
10.5958959032
 20
20.0117795608
 30
0.0
 11
10.5532879557
 21
20.0117795608
 31
0.0
  0
LINE
  5
324
330
1F
100
AcDbEntity
  8
0
  6
Continuous
 62
     7
370
    25
100
AcDbLine
 10
10.7191664457
 20
20.1140070815
 30
0.0
 11
10.7617742937
 21
20.1140070815
 31
0.0
  0
LINE
  5
325
330
1F
100
AcDbEntity
  8
0
  6
Continuous
 62
     7
370
    25
100
AcDbLine
 10
10.8749278847
 20
20.1655722358
 30
0.0
 11
10.9125
 21
20.1655722358
 31
0.0
  0
LINE
  5
326
330
1F
100
AcDbEntity
  8
0
  6
Continuous
 62
     7
370
    25
100
AcDbLine
 10
10.9125
 20
20.1655722358
 30
0.0
 11
10.9125
 21
20.3207921337
 31
0.0
  0
LINE
  5
327
330
1F
100
AcDbEntity
  8
0
  6
Continuous
 62
     7
370
    25
100
AcDbLine
 10
10.9125
 20
20.3207921337
 30
0.0
 11
10.7622375166
 21
20.3207921337
 31
0.0
  0
LINE
  5
328
330
1F
100
AcDbEntity
  8
0
  6
Continuous
 62
     7
370
    25
100
AcDbLine
 10
10.8749278847
 20
20.2832330221
 30
0.0
 11
10.8749278847
 21
20.1655722358
 31
0.0
  0
LINE
  5
329
330
1F
100
AcDbEntity
  8
0
  6
Continuous
 62
     7
370
    25
100
AcDbLine
 10
10.7622375166
 20
20.2832330221
 30
0.0
 11
10.8749278847
 21
20.2832330221
 31
0.0
  0
LINE
  5
32A
330
1F
100
AcDbEntity
  8
0
  6
Continuous
 62
     7
370
    25
100
AcDbLine
 10
10.7622375166
 20
20.3207921337
 30
0.0
 11
10.7622375166
 21
20.2832330221
 31
0.0
  0
LINE
  5
32B
330
1F
100
AcDbEntity
  8
0
  6
Continuous
 62
     7
370
    25
100
AcDbLine
 10
-11.75
 20
0.2899582113
 30
0.0
 11
11.75
 21
0.2899582113
 31
0.0
  0
LINE
  5
32C
330
1F
100
AcDbEntity
  8
0
  6
Continuous
 62
     7
370
    25
100
AcDbLine
 10
-11.75
 20
-19.931426813
 30
0.0
 11
-11.75
 21
20.0
 31
0.0
  0
LINE
  5
32D
330
1F
100
AcDbEntity
  8
0
  6
Continuous
 62
     7
370
    25
100
AcDbLine
 10
-11.75
 20
0.352355061
 30
0.0
 11
11.75
 21
0.352355061
 31
0.0
  0
LINE
  5
32E
330
1F
100
AcDbEntity
  8
0
  6
Continuous
 62
     7
370
    25
100
AcDbLine
 10
11.75
 20
20.0
 30
0.0
 11
11.75
 21
-19.931426813
 31
0.0
  0
LINE
  5
32F
330
1F
100
AcDbEntity
  8
0
  6
Continuous
 62
     7
370
    25
100
AcDbLine
 10
-11.75
 20
-0.2771288991
 30
0.0
 11
11.75
 21
-0.2771288991
 31
0.0
  0
LINE
  5
330
330
1F
100
AcDbEntity
  8
0
  6
Continuous
 62
     7
370
    25
100
AcDbLine
 10
-11.75
 20
-0.3395257488
 30
0.0
 11
11.75
 21
-0.3395257488
 31
0.0
  0
LINE
  5
331
330
1F
100
AcDbEntity
  8
0
  6
Continuous
 62
     7
370
    25
100
AcDbLine
 10
-11.75
 20
0.3902939874
 30
0.0
 11
11.75
 21
0.3902939874
 31
0.0
  0
LINE
  5
332
330
1F
100
AcDbEntity
  8
0
  6
Continuous
 62
     7
370
    25
100
AcDbLine
 10
-11.75
 20
-0.3774646752
 30
0.0
 11
11.75
 21
-0.3774646752
 31
0.0
  0
LINE
  5
333
330
1F
100
AcDbEntity
  8
0
  6
Continuous
 62
     7
370
    25
100
AcDbLine
 10
-11.75
 20
-18.806426813
 30
0.0
 11
-11.72
 21
-18.806426813
 31
0.0
  0
LINE
  5
334
330
1F
100
AcDbEntity
  8
0
  6
Continuous
 62
     7
370
    25
100
AcDbLine
 10
11.75
 20
-18.806426813
 30
0.0
 11
11.72
 21
-18.806426813
 31
0.0
  0
LINE
  5
335
330
1F
100
AcDbEntity
  8
0
  6
Continuous
 62
     7
370
    25
100
AcDbLine
 10
-11.7448528137
 20
-18.8053869213
 30
0.0
 11
-11.75
 21
-18.8053869213
 31
0.0
  0
LINE
  5
336
330
1F
100
AcDbEntity
  8
0
  6
Continuous
 62
     7
370
    25
100
AcDbLine
 10
11.7448528137
 20
-18.8053869213
 30
0.0
 11
11.75
 21
-18.8053869213
 31
0.0
  0
LINE
  5
337
330
1F
100
AcDbEntity
  8
0
  6
Continuous
 62
     7
370
    25
100
AcDbLine
 10
11.72
 20
-1.056426813
 30
0.0
 11
11.75
 21
-1.056426813
 31
0.0
  0
LINE
  5
338
330
1F
100
AcDbEntity
  8
0
  6
Continuous
 62
     7
370
    25
100
AcDbLine
 10
-11.72
 20
-1.056426813
 30
0.0
 11
-11.75
 21
-1.056426813
 31
0.0
  0
LINE
  5
339
330
1F
100
AcDbEntity
  8
0
  6
Continuous
 62
     7
370
    25
100
AcDbLine
 10
11.72
 20
1.715
 30
0.0
 11
11.875
 21
1.715
 31
0.0
  0
LINE
  5
33A
330
1F
100
AcDbEntity
  8
0
  6
Continuous
 62
     7
370
    25
100
AcDbLine
 10
11.875
 20
1.775
 30
0.0
 11
11.72
 21
1.775
 31
0.0
  0
LINE
  5
33B
330
1F
100
AcDbEntity
  8
0
  6
Continuous
 62
     7
370
    25
100
AcDbLine
 10
-11.875
 20
1.715
 30
0.0
 11
-11.72
 21
1.715
 31
0.0
  0
LINE
  5
33C
330
1F
100
AcDbEntity
  8
0
  6
Continuous
 62
     7
370
    25
100
AcDbLine
 10
-11.875
 20
1.775
 30
0.0
 11
-11.72
 21
1.775
 31
0.0
  0
LINE
  5
33D
330
1F
100
AcDbEntity
  8
0
  6
Continuous
 62
     7
370
    25
100
AcDbLine
 10
-11.75
 20
0.06
 30
0.0
 11
-11.875
 21
0.06
 31
0.0
  0
LINE
  5
33E
330
1F
100
AcDbEntity
  8
0
  6
Continuous
 62
     7
370
    25
100
AcDbLine
 10
11.75
 20
0.06
 30
0.0
 11
11.875
 21
0.06
 31
0.0
  0
LINE
  5
33F
330
1F
100
AcDbEntity
  8
0
  6
Continuous
 62
     7
370
    25
100
AcDbLine
 10
11.75
 20
0.0
 30
0.0
 11
11.875
 21
0.0
 31
0.0
  0
LINE
  5
340
330
1F
100
AcDbEntity
  8
0
  6
Continuous
 62
     7
370
    25
100
AcDbLine
 10
-11.875
 20
0.0
 30
0.0
 11
-11.75
 21
0.0
 31
0.0
  0
LINE
  5
341
330
1F
100
AcDbEntity
  8
0
  6
Continuous
 62
     7
370
    25
100
AcDbLine
 10
10.75
 20
-21.25
 30
0.0
 11
-10.75
 21
-21.25
 31
0.0
  0
LINE
  5
342
330
1F
100
AcDbEntity
  8
0
  6
Continuous
 62
     7
370
    25
100
AcDbLine
 10
-10.75
 20
-21.125
 30
0.0
 11
-10.75
 21
-21.25
 31
0.0
  0
LINE
  5
343
330
1F
100
AcDbEntity
  8
0
  6
Continuous
 62
     7
370
    25
100
AcDbLine
 10
10.75
 20
-21.125
 30
0.0
 11
-10.75
 21
-21.125
 31
0.0
  0
LINE
  5
344
330
1F
100
AcDbEntity
  8
0
  6
Continuous
 62
     7
370
    25
100
AcDbLine
 10
0.0
 20
-21.25
 30
0.0
 11
0.0
 21
-21.125
 31
0.0
  0
LINE
  5
345
330
1F
100
AcDbEntity
  8
0
  6
Continuous
 62
     7
370
    25
100
AcDbLine
 10
-10.75
 20
21.125
 30
0.0
 11
-10.75
 21
21.25
 31
0.0
  0
LINE
  5
346
330
1F
100
AcDbEntity
  8
0
  6
Continuous
 62
     7
370
    25
100
AcDbLine
 10
0.0
 20
21.125
 30
0.0
 11
0.0
 21
21.25
 31
0.0
  0
LINE
  5
347
330
1F
100
AcDbEntity
  8
0
  6
Continuous
 62
     7
370
    25
100
AcDbLine
 10
-10.75
 20
21.125
 30
0.0
 11
10.75
 21
21.125
 31
0.0
  0
LINE
  5
348
330
1F
100
AcDbEntity
  8
0
  6
Continuous
 62
     7
370
    25
100
AcDbLine
 10
-10.75
 20
21.25
 30
0.0
 11
10.75
 21
21.25
 31
0.0
  0
LINE
  5
349
330
1F
100
AcDbEntity
  8
0
  6
Continuous
 62
     7
370
    25
100
AcDbLine
 10
-12.0
 20
-20.0
 30
0.0
 11
-12.0
 21
20.0
 31
0.0
  0
LINE
  5
34A
330
1F
100
AcDbEntity
  8
0
  6
Continuous
 62
     7
370
    25
100
AcDbLine
 10
-11.875
 20
-20.0
 30
0.0
 11
-11.875
 21
20.0
 31
0.0
  0
LINE
  5
34B
330
1F
100
AcDbEntity
  8
0
  6
Continuous
 62
     7
370
    25
100
AcDbLine
 10
-11.875
 20
-20.0
 30
0.0
 11
-12.0
 21
-20.0
 31
0.0
  0
LINE
  5
34C
330
1F
100
AcDbEntity
  8
0
  6
Continuous
 62
     7
370
    25
100
AcDbLine
 10
10.75
 20
21.125
 30
0.0
 11
10.75
 21
21.25
 31
0.0
  0
LINE
  5
34D
330
1F
100
AcDbEntity
  8
0
  6
Continuous
 62
     7
370
    25
100
AcDbLine
 10
12.0
 20
20.0
 30
0.0
 11
12.0
 21
-20.0
 31
0.0
  0
LINE
  5
34E
330
1F
100
AcDbEntity
  8
0
  6
Continuous
 62
     7
370
    25
100
AcDbLine
 10
11.875
 20
-20.0
 30
0.0
 11
12.0
 21
-20.0
 31
0.0
  0
LINE
  5
34F
330
1F
100
AcDbEntity
  8
0
  6
Continuous
 62
     7
370
    25
100
AcDbLine
 10
11.875
 20
20.0
 30
0.0
 11
11.875
 21
-20.0
 31
0.0
  0
LINE
  5
350
330
1F
100
AcDbEntity
  8
0
  6
Continuous
 62
     7
370
    25
100
AcDbLine
 10
10.75
 20
-21.125
 30
0.0
 11
10.75
 21
-21.25
 31
0.0
  0
LINE
  5
351
330
1F
100
AcDbEntity
  8
0
  6
Continuous
 62
     7
370
    25
100
AcDbLine
 10
-11.75
 20
1.4723126712
 30
0.0
 11
-11.72
 21
1.4723126712
 31
0.0
  0
LINE
  5
352
330
1F
100
AcDbEntity
  8
0
  6
Continuous
 62
     7
370
    25
100
AcDbLine
 10
11.72
 20
1.4723126712
 30
0.0
 11
11.75
 21
1.4723126712
 31
0.0
  0
LINE
  5
353
330
1F
100
AcDbEntity
  8
0
  6
Continuous
 62
     7
370
    25
100
AcDbLine
 10
-11.75
 20
1.0464373288
 30
0.0
 11
-11.72
 21
1.0464373288
 31
0.0
  0
LINE
  5
354
330
1F
100
AcDbEntity
  8
0
  6
Continuous
 62
     7
370
    25
100
AcDbLine
 10
11.72
 20
1.0464373288
 30
0.0
 11
11.75
 21
1.0464373288
 31
0.0
  0
LINE
  5
355
330
1F
100
AcDbEntity
  8
0
  6
Continuous
 62
     7
370
    25
100
AcDbLine
 10
-11.75
 20
0.6356301149
 30
0.0
 11
-11.72
 21
0.6356301149
 31
0.0
  0
LINE
  5
356
330
1F
100
AcDbEntity
  8
0
  6
Continuous
 62
     7
370
    25
100
AcDbLine
 10
11.72
 20
0.6356301149
 30
0.0
 11
11.75
 21
0.6356301149
 31
0.0
  0
LINE
  5
357
330
1F
100
AcDbEntity
  8
0
  6
Continuous
 62
     7
370
    25
100
AcDbLine
 10
-11.75
 20
1.0096184216
 30
0.0
 11
-11.72
 21
1.0096184216
 31
0.0
  0
LINE
  5
358
330
1F
100
AcDbEntity
  8
0
  6
Continuous
 62
     7
370
    25
100
AcDbLine
 10
11.72
 20
1.0096184216
 30
0.0
 11
11.75
 21
1.0096184216
 31
0.0
  0
LINE
  5
359
330
1F
100
AcDbEntity
  8
0
  6
Continuous
 62
     7
370
    25
100
AcDbLine
 10
-11.75
 20
1.0363958087
 30
0.0
 11
-11.72
 21
1.0363958087
 31
0.0
  0
LINE
  5
35A
330
1F
100
AcDbEntity
  8
0
  6
Continuous
 62
     7
370
    25
100
AcDbLine
 10
11.72
 20
1.0363958087
 30
0.0
 11
11.75
 21
1.0363958087
 31
0.0
  0
LINE
  5
35B
330
1F
100
AcDbEntity
  8
0
  6
Continuous
 62
     7
370
    25
100
AcDbLine
 10
-11.75
 20
0.627158471
 30
0.0
 11
-11.72
 21
0.627158471
 31
0.0
  0
LINE
  5
35C
330
1F
100
AcDbEntity
  8
0
  6
Continuous
 62
     7
370
    25
100
AcDbLine
 10
11.72
 20
0.627158471
 30
0.0
 11
11.75
 21
0.627158471
 31
0.0
  0
LINE
  5
35D
330
1F
100
AcDbEntity
  8
0
  6
Continuous
 62
     7
370
    25
100
AcDbLine
 10
-11.75
 20
1.0196599417
 30
0.0
 11
-11.72
 21
1.0196599417
 31
0.0
  0
LINE
  5
35E
330
1F
100
AcDbEntity
  8
0
  6
Continuous
 62
     7
370
    25
100
AcDbLine
 10
11.72
 20
1.0196599417
 30
0.0
 11
11.75
 21
1.0196599417
 31
0.0
  0
LINE
  5
35F
330
1F
100
AcDbEntity
  8
0
  6
Continuous
 62
     7
370
    25
100
AcDbLine
 10
-8.9282571387
 20
-20.860801813
 30
0.0
 11
-8.867670803
 21
-20.860801813
 31
0.0
  0
LINE
  5
360
330
1F
100
AcDbEntity
  8
0
  6
Continuous
 62
     7
370
    25
100
AcDbLine
 10
8.867670803
 20
-20.860801813
 30
0.0
 11
8.9282571387
 21
-20.860801813
 31
0.0
  0
LINE
  5
361
330
1F
100
AcDbEntity
  8
0
  6
Continuous
 62
     7
370
    25
100
AcDbLine
 10
-10.75
 20
-20.901426813
 30
0.0
 11
-8.9350428867
 21
-20.901426813
 31
0.0
  0
LINE
  5
362
330
1F
100
AcDbEntity
  8
0
  6
Continuous
 62
     7
370
    25
100
AcDbLine
 10
8.9350428867
 20
-20.901426813
 30
0.0
 11
10.75
 21
-20.901426813
 31
0.0
  0
LINE
  5
363
330
1F
100
AcDbEntity
  8
0
  6
Continuous
 62
     7
370
    25
100
AcDbLine
 10
-11.875
 20
1.685
 30
0.0
 11
-11.72
 21
1.685
 31
0.0
  0
LINE
  5
364
330
1F
100
AcDbEntity
  8
0
  6
Continuous
 62
     7
370
    25
100
AcDbLine
 10
11.72
 20
1.685
 30
0.0
 11
11.875
 21
1.685
 31
0.0
  0
LINE
  5
365
330
1F
100
AcDbEntity
  8
0
  6
Continuous
 62
     7
370
    25
100
AcDbLine
 10
11.875
 20
-0.03
 30
0.0
 11
11.75
 21
-0.03
 31
0.0
  0
LINE
  5
366
330
1F
100
AcDbEntity
  8
0
  6
Continuous
 62
     7
370
    25
100
AcDbLine
 10
-11.75
 20
-0.03
 30
0.0
 11
-11.875
 21
-0.03
 31
0.0
  0
ARC
  5
367
330
1F
100
AcDbEntity
  8
0
  6
Continuous
 62
     7
370
    25
100
AcDbCircle
 10
-9.0532571387
 20
-20.860801813
 30
0.0
 40
0.1249999999999911
100
AcDbArc
 50
290.0711683752
 51
0.0
  0
ARC
  5
368
330
1F
100
AcDbEntity
  8
0
  6
Continuous
 62
     7
370
    25
100
AcDbCircle
 10
9.0532571387
 20
-20.860801813
 30
0.0
 40
0.1250000000000053
100
AcDbArc
 50
180.0
 51
250.5192556605
  0
ARC
  5
369
330
1F
100
AcDbEntity
  8
0
  6
Continuous
 62
     7
370
    25
100
AcDbCircle
 10
-11.6875
 20
-0.8913322103
 30
0.0
 40
0.0624999999999939
100
AcDbArc
 50
180.0
 51
238.6677485024
  0
ARC
  5
36A
330
1F
100
AcDbEntity
  8
0
  6
Continuous
 62
     7
370
    25
100
AcDbCircle
 10
11.6875
 20
-0.8913322103
 30
0.0
 40
0.0624999999999414
100
AcDbArc
 50
301.3322514976
 51
0.0
  0
ARC
  5
36B
330
1F
100
AcDbEntity
  8
0
  6
Continuous
 62
     7
370
    25
100
AcDbCircle
 10
10.75
 20
-19.962676813
 30
0.0
 40
0.9700000000000024
100
AcDbArc
 50
270.0
 51
0.0
  0
ARC
  5
36C
330
1F
100
AcDbEntity
  8
0
  6
Continuous
 62
     7
370
    25
100
AcDbCircle
 10
-10.75
 20
-19.962676813
 30
0.0
 40
0.970000000000077
100
AcDbArc
 50
180.0
 51
270.0
  0
ARC
  5
36D
330
1F
100
AcDbEntity
  8
0
  6
Continuous
 62
     7
370
    25
100
AcDbCircle
 10
-10.75
 20
20.03125
 30
0.0
 40
0.970000000000006
100
AcDbArc
 50
90.0
 51
180.0
  0
ARC
  5
36E
330
1F
100
AcDbEntity
  8
0
  6
Continuous
 62
     7
370
    25
100
AcDbCircle
 10
10.75
 20
20.03125
 30
0.0
 40
0.9700000000000699
100
AcDbArc
 50
0.0
 51
90.0
  0
ARC
  5
36F
330
1F
100
AcDbEntity
  8
0
  6
Continuous
 62
     7
370
    25
100
AcDbCircle
 10
-10.75
 20
-19.931426813
 30
0.0
 40
0.9700000000000486
100
AcDbArc
 50
180.0
 51
270.0
  0
ARC
  5
370
330
1F
100
AcDbEntity
  8
0
  6
Continuous
 62
     7
370
    25
100
AcDbCircle
 10
10.75
 20
-19.931426813
 30
0.0
 40
0.9699999999999882
100
AcDbArc
 50
270.0
 51
0.0
  0
ARC
  5
371
330
1F
100
AcDbEntity
  8
0
  6
Continuous
 62
     7
370
    25
100
AcDbCircle
 10
-10.75
 20
-19.931426813
 30
0.0
 40
1.00000000000005
100
AcDbArc
 50
180.0
 51
270.0
  0
ARC
  5
372
330
1F
100
AcDbEntity
  8
0
  6
Continuous
 62
     7
370
    25
100
AcDbCircle
 10
10.75
 20
-19.931426813
 30
0.0
 40
0.999999999999929
100
AcDbArc
 50
270.0
 51
0.0
  0
ARC
  5
373
330
1F
100
AcDbEntity
  8
0
  6
Continuous
 62
     7
370
    25
100
AcDbCircle
 10
10.75
 20
20.0
 30
0.0
 40
0.9700000000000522
100
AcDbArc
 50
0.0
 51
90.0
  0
ARC
  5
374
330
1F
100
AcDbEntity
  8
0
  6
Continuous
 62
     7
370
    25
100
AcDbCircle
 10
-10.75
 20
20.0
 30
0.0
 40
0.9699999999999882
100
AcDbArc
 50
90.0
 51
180.0
  0
ARC
  5
375
330
1F
100
AcDbEntity
  8
0
  6
Continuous
 62
     7
370
    25
100
AcDbCircle
 10
10.75
 20
20.0
 30
0.0
 40
1.00000000000005
100
AcDbArc
 50
0.0
 51
90.0
  0
ARC
  5
376
330
1F
100
AcDbEntity
  8
0
  6
Continuous
 62
     7
370
    25
100
AcDbCircle
 10
-10.75
 20
20.0
 30
0.0
 40
0.9999999999999325
100
AcDbArc
 50
90.0
 51
180.0
  0
ARC
  5
377
330
1F
100
AcDbEntity
  8
0
  6
Continuous
 62
     7
370
    25
100
AcDbCircle
 10
-10.75
 20
20.0
 30
0.0
 40
1.249999999999964
100
AcDbArc
 50
90.0
 51
180.0
  0
ARC
  5
378
330
1F
100
AcDbEntity
  8
0
  6
Continuous
 62
     7
370
    25
100
AcDbCircle
 10
-10.75
 20
20.0
 30
0.0
 40
1.124999999999943
100
AcDbArc
 50
90.0
 51
180.0
  0
ARC
  5
379
330
1F
100
AcDbEntity
  8
0
  6
Continuous
 62
     7
370
    25
100
AcDbCircle
 10
-10.75
 20
-20.0
 30
0.0
 40
1.250000000000053
100
AcDbArc
 50
180.0
 51
270.0
  0
ARC
  5
37A
330
1F
100
AcDbEntity
  8
0
  6
Continuous
 62
     7
370
    25
100
AcDbCircle
 10
-10.75
 20
-20.0
 30
0.0
 40
1.125000000000195
100
AcDbArc
 50
180.0
 51
270.0
  0
ARC
  5
37B
330
1F
100
AcDbEntity
  8
0
  6
Continuous
 62
     7
370
    25
100
AcDbCircle
 10
10.75
 20
20.0
 30
0.0
 40
1.250000000000039
100
AcDbArc
 50
0.0
 51
90.0
  0
ARC
  5
37C
330
1F
100
AcDbEntity
  8
0
  6
Continuous
 62
     7
370
    25
100
AcDbCircle
 10
10.75
 20
20.0
 30
0.0
 40
1.125000000000025
100
AcDbArc
 50
0.0
 51
90.0
  0
ARC
  5
37D
330
1F
100
AcDbEntity
  8
0
  6
Continuous
 62
     7
370
    25
100
AcDbCircle
 10
10.75
 20
-20.0
 30
0.0
 40
1.249999999999998
100
AcDbArc
 50
270.0
 51
0.0
  0
ARC
  5
37E
330
1F
100
AcDbEntity
  8
0
  6
Continuous
 62
     7
370
    25
100
AcDbCircle
 10
10.75
 20
-20.0
 30
0.0
 40
1.124999999999936
100
AcDbArc
 50
270.0
 51
0.0
  0
ENDSEC
  0
SECTION
  2
OBJECTS
  0
DICTIONARY
  5
C
330
0
100
AcDbDictionary
281
     1
  3
ACAD_GROUP
350
D
  3
ACAD_LAYOUT
350
1A
  3
ACAD_MLINESTYLE
350
17
  3
ACAD_PLOTSETTINGS
350
19
  3
ACAD_PLOTSTYLENAME
350
E
  3
ACAD_SCALELIST
350
47
  3
DWGPROPS
350
37F
  0
DICTIONARY
  5
D
102
{ACAD_REACTORS
330
C
102
}
330
C
100
AcDbDictionary
281
     1
  0
DICTIONARY
  5
1A
102
{ACAD_REACTORS
330
C
102
}
330
C
100
AcDbDictionary
281
     1
  3
Layout1
350
1E
  3
Layout2
350
26
  3
Model
350
22
  0
DICTIONARY
  5
17
102
{ACAD_REACTORS
330
C
102
}
330
C
100
AcDbDictionary
281
     1
  3
Standard
350
18
  0
DICTIONARY
  5
19
102
{ACAD_REACTORS
330
C
102
}
330
C
100
AcDbDictionary
281
     1
  0
ACDBDICTIONARYWDFLT
  5
E
102
{ACAD_REACTORS
330
C
102
}
330
C
100
AcDbDictionary
281
     1
  3
Normal
350
F
100
AcDbDictionaryWithDefault
340
F
  0
DICTIONARY
  5
47
102
{ACAD_REACTORS
330
C
102
}
330
C
100
AcDbDictionary
281
     1
  3
A0
350
48
  3
A1
350
49
  3
A2
350
4A
  3
A3
350
4B
  3
A4
350
4C
  3
A5
350
4D
  3
A6
350
4E
  3
A7
350
4F
  3
A8
350
50
  3
A9
350
51
  3
B1
350
52
  3
B2
350
53
  3
B3
350
54
  3
B4
350
55
  3
B5
350
56
  3
B6
350
57
  3
B7
350
58
  0
XRECORD
  5
37F
102
{ACAD_REACTORS
330
C
102
}
330
C
100
AcDbXrecord
280
     1
  1
DWGPROPS COOKIE
  2

  3

  4

  6

  7

  8
rmcneal
  9

300
=
301
=
302
=
303
=
304
=
305
=
306
=
307
=
308
=
309
=
 40
0.0
 41
2460900.775637535
 42
2460900.775695151
  1

 90
        0
  0
LAYOUT
  5
1E
102
{ACAD_REACTORS
330
1A
102
}
330
1A
100
AcDbPlotSettings
  1

  2
none_device
  4

  6

 40
0.0
 41
0.0
 42
0.0
 43
0.0
 44
0.0
 45
0.0
 46
0.0
 47
0.0
 48
0.0
 49
0.0
140
0.0
141
0.0
142
1.0
143
1.0
 70
   688
 72
     0
 73
     0
 74
     5
  7

 75
    16
147
1.0
148
0.0
149
0.0
100
AcDbLayout
  1
Layout1
 70
     1
 71
     1
 10
0.0
 20
0.0
 11
12.0
 21
9.0
 12
0.0
 22
0.0
 32
0.0
 14
1.0000000000E+20
 24
1.0000000000E+20
 34
1.0000000000E+20
 15
-1.0000000000E+20
 25
-1.0000000000E+20
 35
-1.0000000000E+20
146
0.0
 13
0.0
 23
0.0
 33
0.0
 16
1.0
 26
0.0
 36
0.0
 17
0.0
 27
1.0
 37
0.0
 76
     0
330
1B
  0
LAYOUT
  5
26
102
{ACAD_REACTORS
330
1A
102
}
330
1A
100
AcDbPlotSettings
  1

  2
none_device
  4

  6

 40
0.0
 41
0.0
 42
0.0
 43
0.0
 44
0.0
 45
0.0
 46
0.0
 47
0.0
 48
0.0
 49
0.0
140
0.0
141
0.0
142
1.0
143
1.0
 70
   688
 72
     0
 73
     0
 74
     5
  7

 75
    16
147
1.0
148
0.0
149
0.0
100
AcDbLayout
  1
Layout2
 70
     1
 71
     2
 10
0.0
 20
0.0
 11
0.0
 21
0.0
 12
0.0
 22
0.0
 32
0.0
 14
0.0
 24
0.0
 34
0.0
 15
0.0
 25
0.0
 35
0.0
146
0.0
 13
0.0
 23
0.0
 33
0.0
 16
1.0
 26
0.0
 36
0.0
 17
0.0
 27
1.0
 37
0.0
 76
     0
330
23
  0
LAYOUT
  5
22
102
{ACAD_REACTORS
330
1A
102
}
330
1A
100
AcDbPlotSettings
  1

  2
none_device
  4
ANSI_A_(11.00_x_8.50_Inches)
  6

 40
6.35
 41
19.05
 42
6.35000508
 43
19.05000254
 44
279.4
 45
215.9
 46
133.34999746
 47
88.89999873
 48
0.0
 49
0.0
140
0.0
141
0.0
142
0.198
143
1.0
 70
  1696
 72
     0
 73
     0
 74
     0
  7

 75
     0
147
0.5913241897
148
-39.4088153714
149
0.0
100
AcDbLayout
  1
Model
 70
     1
 71
     0
 10
0.0
 20
0.0
 11
12.0
 21
9.0
 12
0.0
 22
0.0
 32
0.0
 14
-12.0
 24
-21.25
 34
0.0
 15
12.0
 25
21.25
 35
0.0
146
0.0
 13
0.0
 23
0.0
 33
0.0
 16
1.0
 26
0.0
 36
0.0
 17
0.0
 27
1.0
 37
0.0
 76
     0
330
1F
331
29
  0
MLINESTYLE
  5
18
102
{ACAD_REACTORS
330
17
102
}
330
17
100
AcDbMlineStyle
  2
Standard
 70
     0
  3

 62
   256
 51
90.0
 52
90.0
 71
     2
 49
0.5
 62
   256
  6
BYLAYER
 49
-0.5
 62
   256
  6
BYLAYER
  0
ACDBPLACEHOLDER
  5
F
102
{ACAD_REACTORS
330
E
102
}
330
E
  0
SCALE
  5
48
102
{ACAD_REACTORS
330
47
102
}
330
47
100
AcDbScale
 70
     0
300
1:1
140
1.0
141
1.0
290
     1
  0
SCALE
  5
49
102
{ACAD_REACTORS
330
47
102
}
330
47
100
AcDbScale
 70
     0
300
1/128" = 1'-0"
140
0.0078125
141
12.0
290
     0
  0
SCALE
  5
4A
102
{ACAD_REACTORS
330
47
102
}
330
47
100
AcDbScale
 70
     0
300
1/64" = 1'-0"
140
0.015625
141
12.0
290
     0
  0
SCALE
  5
4B
102
{ACAD_REACTORS
330
47
102
}
330
47
100
AcDbScale
 70
     0
300
1/32" = 1'-0"
140
0.03125
141
12.0
290
     0
  0
SCALE
  5
4C
102
{ACAD_REACTORS
330
47
102
}
330
47
100
AcDbScale
 70
     0
300
1/16" = 1'-0"
140
0.0625
141
12.0
290
     0
  0
SCALE
  5
4D
102
{ACAD_REACTORS
330
47
102
}
330
47
100
AcDbScale
 70
     0
300
3/32" = 1'-0"
140
0.09375
141
12.0
290
     0
  0
SCALE
  5
4E
102
{ACAD_REACTORS
330
47
102
}
330
47
100
AcDbScale
 70
     0
300
1/8" = 1'-0"
140
0.125
141
12.0
290
     0
  0
SCALE
  5
4F
102
{ACAD_REACTORS
330
47
102
}
330
47
100
AcDbScale
 70
     0
300
3/16" = 1'-0"
140
0.1875
141
12.0
290
     0
  0
SCALE
  5
50
102
{ACAD_REACTORS
330
47
102
}
330
47
100
AcDbScale
 70
     0
300
1/4" = 1'-0"
140
0.25
141
12.0
290
     0
  0
SCALE
  5
51
102
{ACAD_REACTORS
330
47
102
}
330
47
100
AcDbScale
 70
     0
300
3/8" = 1'-0"
140
0.375
141
12.0
290
     0
  0
SCALE
  5
52
102
{ACAD_REACTORS
330
47
102
}
330
47
100
AcDbScale
 70
     0
300
1/2" = 1'-0"
140
0.5
141
12.0
290
     0
  0
SCALE
  5
53
102
{ACAD_REACTORS
330
47
102
}
330
47
100
AcDbScale
 70
     0
300
3/4" = 1'-0"
140
0.75
141
12.0
290
     0
  0
SCALE
  5
54
102
{ACAD_REACTORS
330
47
102
}
330
47
100
AcDbScale
 70
     0
300
1" = 1'-0"
140
1.0
141
12.0
290
     0
  0
SCALE
  5
55
102
{ACAD_REACTORS
330
47
102
}
330
47
100
AcDbScale
 70
     0
300
1-1/2" = 1'-0"
140
1.5
141
12.0
290
     0
  0
SCALE
  5
56
102
{ACAD_REACTORS
330
47
102
}
330
47
100
AcDbScale
 70
     0
300
3" = 1'-0"
140
3.0
141
12.0
290
     0
  0
SCALE
  5
57
102
{ACAD_REACTORS
330
47
102
}
330
47
100
AcDbScale
 70
     0
300
6" = 1'-0"
140
6.0
141
12.0
290
     0
  0
SCALE
  5
58
102
{ACAD_REACTORS
330
47
102
}
330
47
100
AcDbScale
 70
     0
300
1'-0" = 1'-0"
140
12.0
141
12.0
290
     0
  0
ENDSEC
  0
EOF
