  0
SECTION
  2
HEADER
  9
$ACADVER
  1
AC1015
  9
$ACADMAINTVER
 70
     6
  9
$DWGCODEPAGE
  3
ANSI_1252
  9
$INSBASE
 10
0.0
 20
0.0
 30
0.0
  9
$EXTMIN
 10
-12.0
 20
-2.0890556007
 30
0.0
  9
$EXTMAX
 10
12.0
 20
1.4497
 30
0.0
  9
$LIMMIN
 10
0.0
 20
0.0
  9
$LIMMAX
 10
12.0
 20
9.0
  9
$ORTHOMODE
 70
     0
  9
$REGENMODE
 70
     1
  9
$FILLMODE
 70
     1
  9
$QTEXTMODE
 70
     0
  9
$MIRRTEXT
 70
     1
  9
$LTSCALE
 40
1.0
  9
$ATTMODE
 70
     1
  9
$TEXTSIZE
 40
0.1388888889
  9
$TRACEWID
 40
0.05
  9
$TEXTSTYLE
  7
Standard
  9
$CLAYER
  8
0
  9
$CELTYPE
  6
ByLayer
  9
$CECOLOR
 62
   256
  9
$CELTSCALE
 40
1.0
  9
$DISPSILH
 70
     0
  9
$DIMSCALE
 40
1.0
  9
$DIMASZ
 40
0.075
  9
$DIMEXO
 40
0.0
  9
$DIMDLI
 40
0.38
  9
$DIMRND
 40
0.0
  9
$DIMDLE
 40
0.0
  9
$DIMEXE
 40
0.05
  9
$DIMTP
 40
0.0
  9
$DIMTM
 40
0.0
  9
$DIMTXT
 40
0.1388888889
  9
$DIMCEN
 40
0.09
  9
$DIMTSZ
 40
0.0
  9
$DIMTOL
 70
     0
  9
$DIMLIM
 70
     0
  9
$DIMTIH
 70
     1
  9
$DIMTOH
 70
     1
  9
$DIMSE1
 70
     0
  9
$DIMSE2
 70
     0
  9
$DIMTAD
 70
     0
  9
$DIMZIN
 70
     1
  9
$DIMBLK
  1

  9
$DIMASO
 70
     1
  9
$DIMSHO
 70
     1
  9
$DIMPOST
  1

  9
$DIMAPOST
  1

  9
$DIMALT
 70
     0
  9
$DIMALTD
 70
     2
  9
$DIMALTF
 40
25.4
  9
$DIMLFAC
 40
1.0
  9
$DIMTOFL
 70
     0
  9
$DIMTVP
 40
0.0
  9
$DIMTIX
 70
     0
  9
$DIMSOXD
 70
     0
  9
$DIMSAH
 70
     0
  9
$DIMBLK1
  1

  9
$DIMBLK2
  1

  9
$DIMSTYLE
  2
Standard
  9
$DIMCLRD
 70
     0
  9
$DIMCLRE
 70
     0
  9
$DIMCLRT
 70
     0
  9
$DIMTFAC
 40
1.0
  9
$DIMGAP
 40
0.08
  9
$DIMJUST
 70
     0
  9
$DIMSD1
 70
     0
  9
$DIMSD2
 70
     0
  9
$DIMTOLJ
 70
     1
  9
$DIMTZIN
 70
     1
  9
$DIMALTZ
 70
     0
  9
$DIMALTTZ
 70
     0
  9
$DIMUPT
 70
     0
  9
$DIMDEC
 70
     3
  9
$DIMTDEC
 70
     3
  9
$DIMALTU
 70
     2
  9
$DIMALTTD
 70
     2
  9
$DIMTXSTY
  7
Standard
  9
$DIMAUNIT
 70
     0
  9
$DIMADEC
 70
     1
  9
$DIMALTRND
 40
0.0
  9
$DIMAZIN
 70
     0
  9
$DIMDSEP
 70
    46
  9
$DIMATFIT
 70
     3
  9
$DIMFRAC
 70
     0
  9
$DIMLDRBLK
  1

  9
$DIMLUNIT
 70
     2
  9
$DIMLWD
 70
    -2
  9
$DIMLWE
 70
    -2
  9
$DIMTMOVE
 70
     0
  9
$LUNITS
 70
     2
  9
$LUPREC
 70
     6
  9
$SKETCHINC
 40
0.1
  9
$FILLETRAD
 40
0.0
  9
$AUNITS
 70
     0
  9
$AUPREC
 70
     1
  9
$MENU
  1
.
  9
$ELEVATION
 40
0.0
  9
$PELEVATION
 40
0.0
  9
$THICKNESS
 40
0.0
  9
$LIMCHECK
 70
     0
  9
$CHAMFERA
 40
0.0
  9
$CHAMFERB
 40
0.0
  9
$CHAMFERC
 40
0.0
  9
$CHAMFERD
 40
0.0
  9
$SKPOLY
 70
     0
  9
$TDCREATE
 40
2460900.567297188
  9
$TDUCREATE
 40
2460900.775630521
  9
$TDUPDATE
 40
2460900.567361551
  9
$TDUUPDATE
 40
2460900.775694885
  9
$TDINDWG
 40
0.0000000116
  9
$TDUSRTIMER
 40
0.0000000116
  9
$USRTIMER
 70
     1
  9
$ANGBASE
 50
0.0
  9
$ANGDIR
 70
     0
  9
$PDMODE
 70
     0
  9
$PDSIZE
 40
-1.0
  9
$PLINEWID
 40
0.0
  9
$SPLFRAME
 70
     0
  9
$SPLINETYPE
 70
     6
  9
$SPLINESEGS
 70
     8
  9
$HANDSEED
  5
35B
  9
$SURFTAB1
 70
     6
  9
$SURFTAB2
 70
     6
  9
$SURFTYPE
 70
     6
  9
$SURFU
 70
     6
  9
$SURFV
 70
     6
  9
$UCSBASE
  2

  9
$UCSNAME
  2

  9
$UCSORG
 10
0.0
 20
0.0
 30
0.0
  9
$UCSXDIR
 10
1.0
 20
0.0
 30
0.0
  9
$UCSYDIR
 10
0.0
 20
1.0
 30
0.0
  9
$UCSORTHOREF
  2

  9
$UCSORTHOVIEW
 70
     0
  9
$UCSORGTOP
 10
0.0
 20
0.0
 30
0.0
  9
$UCSORGBOTTOM
 10
0.0
 20
0.0
 30
0.0
  9
$UCSORGLEFT
 10
0.0
 20
0.0
 30
0.0
  9
$UCSORGRIGHT
 10
0.0
 20
0.0
 30
0.0
  9
$UCSORGFRONT
 10
0.0
 20
0.0
 30
0.0
  9
$UCSORGBACK
 10
0.0
 20
0.0
 30
0.0
  9
$PUCSBASE
  2

  9
$PUCSNAME
  2

  9
$PUCSORG
 10
0.0
 20
0.0
 30
0.0
  9
$PUCSXDIR
 10
1.0
 20
0.0
 30
0.0
  9
$PUCSYDIR
 10
0.0
 20
1.0
 30
0.0
  9
$PUCSORTHOREF
  2

  9
$PUCSORTHOVIEW
 70
     0
  9
$PUCSORGTOP
 10
0.0
 20
0.0
 30
0.0
  9
$PUCSORGBOTTOM
 10
0.0
 20
0.0
 30
0.0
  9
$PUCSORGLEFT
 10
0.0
 20
0.0
 30
0.0
  9
$PUCSORGRIGHT
 10
0.0
 20
0.0
 30
0.0
  9
$PUCSORGFRONT
 10
0.0
 20
0.0
 30
0.0
  9
$PUCSORGBACK
 10
0.0
 20
0.0
 30
0.0
  9
$USERI1
 70
     0
  9
$USERI2
 70
     0
  9
$USERI3
 70
     0
  9
$USERI4
 70
     0
  9
$USERI5
 70
     0
  9
$USERR1
 40
0.0
  9
$USERR2
 40
0.0
  9
$USERR3
 40
0.0
  9
$USERR4
 40
0.0
  9
$USERR5
 40
0.0
  9
$WORLDVIEW
 70
     1
  9
$SHADEDGE
 70
     3
  9
$SHADEDIF
 70
    70
  9
$TILEMODE
 70
     1
  9
$MAXACTVP
 70
    64
  9
$PINSBASE
 10
0.0
 20
0.0
 30
0.0
  9
$PLIMCHECK
 70
     0
  9
$PEXTMIN
 10
1.0000000000E+20
 20
1.0000000000E+20
 30
1.0000000000E+20
  9
$PEXTMAX
 10
-1.0000000000E+20
 20
-1.0000000000E+20
 30
-1.0000000000E+20
  9
$PLIMMIN
 10
0.0
 20
0.0
  9
$PLIMMAX
 10
12.0
 20
9.0
  9
$UNITMODE
 70
     0
  9
$VISRETAIN
 70
     1
  9
$PLINEGEN
 70
     0
  9
$PSLTSCALE
 70
     1
  9
$TREEDEPTH
 70
  3020
  9
$CMLSTYLE
  2
Standard
  9
$CMLJUST
 70
     0
  9
$CMLSCALE
 40
1.0
  9
$PROXYGRAPHICS
 70
     1
  9
$MEASUREMENT
 70
     0
  9
$CELWEIGHT
370
    -1
  9
$ENDCAPS
280
     0
  9
$JOINSTYLE
280
     0
  9
$LWDISPLAY
290
     1
  9
$INSUNITS
 70
     1
  9
$HYPERLINKBASE
  1

  9
$STYLESHEET
  1

  9
$XEDIT
290
     1
  9
$CEPSNTYPE
380
     0
  9
$PSTYLEMODE
290
     1
  9
$FINGERPRINTGUID
  2
{561f0242-1727-4b1c-b7a8-81f2629dd311}
  9
$VERSIONGUID
  2
{FAEB1C32-E019-11D5-929B-00C0DF256EC4}
  9
$EXTNAMES
290
     1
  9
$PSVPSCALE
 40
0.0
  9
$OLESTARTUP
290
     0
  0
ENDSEC
  0
SECTION
  2
CLASSES
  0
CLASS
  1
ACDBDICTIONARYWDFLT
  2
AcDbDictionaryWithDefault
  3
ObjectDBX Classes
 90
        0
280
     0
281
     0
  0
CLASS
  1
VISUALSTYLE
  2
AcDbVisualStyle
  3
ObjectDBX Classes
 90
     4095
280
     0
281
     0
  0
CLASS
  1
MATERIAL
  2
AcDbMaterial
  3
ObjectDBX Classes
 90
     1153
280
     0
281
     0
  0
CLASS
  1
SCALE
  2
AcDbScale
  3
ObjectDBX Classes
 90
     1153
280
     0
281
     0
  0
CLASS
  1
TABLESTYLE
  2
AcDbTableStyle
  3
ObjectDBX Classes
 90
     4095
280
     0
281
     0
  0
CLASS
  1
MLEADERSTYLE
  2
AcDbMLeaderStyle
  3
ACDB_MLEADERSTYLE_CLASS
 90
     4095
280
     0
281
     0
  0
CLASS
  1
SUN
  2
AcDbSun
  3
SCENEOE
 90
     1153
280
     0
281
     0
  0
CLASS
  1
ACDBPLACEHOLDER
  2
AcDbPlaceHolder
  3
ObjectDBX Classes
 90
        0
280
     0
281
     0
  0
CLASS
  1
LAYOUT
  2
AcDbLayout
  3
ObjectDBX Classes
 90
        0
280
     0
281
     0
  0
ENDSEC
  0
SECTION
  2
TABLES
  0
TABLE
  2
VPORT
  5
8
330
0
100
AcDbSymbolTable
 70
     1
  0
VPORT
  5
29
330
8
100
AcDbSymbolTableRecord
100
AcDbViewportTableRecord
  2
*Active
 70
     0
 10
0.0
 20
0.0
 11
1.0
 21
1.0
 12
0.0
 22
-0.3196778003
 13
0.0
 23
0.0
 14
0.5
 24
0.5
 15
0.5
 25
0.5
 16
0.0
 26
0.0
 36
1.0
 17
0.0
 27
0.0
 37
0.0
 40
3.6095307127
 41
6.7820450769
 42
50.0
 43
0.0
 44
0.0
 50
0.0
 51
0.0
 71
     0
 72
   100
 73
     1
 74
     3
 75
     0
 76
     0
 77
     0
 78
     0
281
     0
 65
     1
110
0.0
120
0.0
130
0.0
111
1.0
121
0.0
131
0.0
112
0.0
122
1.0
132
0.0
 79
     0
146
0.0
  0
ENDTAB
  0
TABLE
  2
LTYPE
  5
5
330
0
100
AcDbSymbolTable
 70
     6
  0
LTYPE
  5
14
330
5
100
AcDbSymbolTableRecord
100
AcDbLinetypeTableRecord
  2
ByBlock
 70
     0
  3

 72
    65
 73
     0
 40
0.0
  0
LTYPE
  5
15
330
5
100
AcDbSymbolTableRecord
100
AcDbLinetypeTableRecord
  2
ByLayer
 70
     0
  3

 72
    65
 73
     0
 40
0.0
  0
LTYPE
  5
16
330
5
100
AcDbSymbolTableRecord
100
AcDbLinetypeTableRecord
  2
Continuous
 70
     0
  3
Solid line
 72
    65
 73
     0
 40
0.0
  0
LTYPE
  5
5E
330
5
100
AcDbSymbolTableRecord
100
AcDbLinetypeTableRecord
  2
HIDDEN
 70
     0
  3
Hidden __ __ __ __ __ __ __ __ __ __ __ __ __ __
 72
    65
 73
     2
 40
0.075
 49
0.05
 74
     0
 49
-0.025
 74
     0
  0
LTYPE
  5
5F
330
5
100
AcDbSymbolTableRecord
100
AcDbLinetypeTableRecord
  2
PHANTOM
 70
     0
  3
Phantom ______  __  __  ______  __  __  ______
 72
    65
 73
     6
 40
0.5
 49
0.25
 74
     0
 49
-0.05
 74
     0
 49
0.05
 74
     0
 49
-0.05
 74
     0
 49
0.05
 74
     0
 49
-0.05
 74
     0
  0
LTYPE
  5
60
330
5
100
AcDbSymbolTableRecord
100
AcDbLinetypeTableRecord
  2
CENTER
 70
     0
  3
Center ____ _ ____ _ ____ _ ____ _ ____ _ ____
 72
    65
 73
     4
 40
0.4
 49
0.25
 74
     0
 49
-0.05
 74
     0
 49
0.05
 74
     0
 49
-0.05
 74
     0
  0
LTYPE
  5
61
330
5
100
AcDbSymbolTableRecord
100
AcDbLinetypeTableRecord
  2
CENTERX2
 70
     0
  3
Center (2x) ________  __  ________  __  _____
 72
    65
 73
     4
 40
0.8
 49
0.5
 74
     0
 49
-0.1
 74
     0
 49
0.1
 74
     0
 49
-0.1
 74
     0
  0
LTYPE
  5
62
330
5
100
AcDbSymbolTableRecord
100
AcDbLinetypeTableRecord
  2
DOT2
 70
     0
  3
Dot (.5x) ........................................
 72
    65
 73
     2
 40
0.025
 49
0.0
 74
     0
 49
-0.025
 74
     0
  0
ENDTAB
  0
TABLE
  2
LAYER
  5
2
330
0
100
AcDbSymbolTable
 70
     1
  0
LAYER
  5
10
330
2
100
AcDbSymbolTableRecord
100
AcDbLayerTableRecord
  2
0
 70
     0
 62
     7
  6
Continuous
370
    -3
390
F
  0
ENDTAB
  0
TABLE
  2
STYLE
  5
3
330
0
100
AcDbSymbolTable
 70
     1
  0
STYLE
  5
11
330
3
100
AcDbSymbolTableRecord
100
AcDbTextStyleTableRecord
  2
Standard
 70
     0
 40
0.0
 41
1.0
 50
0.0
 71
     0
 42
0.1388888889
  3
txt
  4

  0
ENDTAB
  0
TABLE
  2
VIEW
  5
6
330
0
100
AcDbSymbolTable
 70
     0
  0
ENDTAB
  0
TABLE
  2
UCS
  5
7
330
0
100
AcDbSymbolTable
 70
     0
  0
ENDTAB
  0
TABLE
  2
APPID
  5
9
330
0
100
AcDbSymbolTable
 70
     1
  0
APPID
  5
12
330
9
100
AcDbSymbolTableRecord
100
AcDbRegAppTableRecord
  2
ACAD
 70
     0
  0
ENDTAB
  0
TABLE
  2
DIMSTYLE
  5
A
330
0
100
AcDbSymbolTable
 70
     1
100
AcDbDimStyleTable
  0
DIMSTYLE
105
27
330
A
100
AcDbSymbolTableRecord
100
AcDbDimStyleTableRecord
  2
Standard
 70
     0
178
     0
340
11
  0
ENDTAB
  0
TABLE
  2
BLOCK_RECORD
  5
1
330
0
100
AcDbSymbolTable
 70
     1
  0
BLOCK_RECORD
  5
1F
330
1
100
AcDbSymbolTableRecord
100
AcDbBlockTableRecord
  2
*Model_Space
340
22
  0
BLOCK_RECORD
  5
1B
330
1
100
AcDbSymbolTableRecord
100
AcDbBlockTableRecord
  2
*Paper_Space
340
1E
  0
BLOCK_RECORD
  5
23
330
1
100
AcDbSymbolTableRecord
100
AcDbBlockTableRecord
  2
*Paper_Space0
340
26
  0
ENDTAB
  0
ENDSEC
  0
SECTION
  2
BLOCKS
  0
BLOCK
  5
20
330
1F
100
AcDbEntity
  8
0
100
AcDbBlockBegin
  2
*Model_Space
 70
     0
 10
0.0
 20
0.0
 30
0.0
  3
*Model_Space
  1

  0
ENDBLK
  5
21
330
1F
100
AcDbEntity
  8
0
100
AcDbBlockEnd
  0
BLOCK
  5
1C
330
1B
100
AcDbEntity
 67
     1
  8
0
100
AcDbBlockBegin
  2
*Paper_Space
 70
     0
 10
0.0
 20
0.0
 30
0.0
  3
*Paper_Space
  1

  0
ENDBLK
  5
1D
330
1B
100
AcDbEntity
 67
     1
  8
0
100
AcDbBlockEnd
  0
BLOCK
  5
24
330
23
100
AcDbEntity
  8
0
100
AcDbBlockBegin
  2
*Paper_Space0
 70
     0
 10
0.0
 20
0.0
 30
0.0
  3
*Paper_Space0
  1

  0
ENDBLK
  5
25
330
23
100
AcDbEntity
  8
0
100
AcDbBlockEnd
  0
ENDSEC
  0
SECTION
  2
ENTITIES
  0
LWPOLYLINE
  5
63
330
1F
100
AcDbEntity
  8
0
  6
Continuous
 62
     7
100
AcDbPolyline
 90
       17
 70
   128
 43
0.0
 10
9.9226877008
 20
0.1210788473
 10
9.8996026792
 20
0.1633894524
 10
9.8618335516
 20
0.1937793114
 10
9.8151303254
 20
0.2076218437
 10
9.7666031432
 20
0.2028096493
 10
9.7236398288
 20
0.1800753411
 10
9.6927811572
 20
0.1428800114
 10
9.6787250815
 20
0.0968863121
 10
9.6836115118
 20
0.0490963669
 10
9.7066965334
 20
0.0067857617
 10
9.744465661
 20
-0.0236040973
 10
9.7911688872
 20
-0.0374466296
 10
9.8396960694
 20
-0.0326344352
 10
9.8826593838
 20
-0.009900127
 10
9.9135180554
 20
0.0272952027
 10
9.9275741311
 20
0.073288902
 10
9.9226877008
 20
0.1210788473
  0
SPLINE
  5
77
330
1F
100
AcDbEntity
  8
0
  6
Continuous
 62
     7
370
    25
100
AcDbSpline
210
0.0
220
0.0
230
1.0
 70
     8
 71
     3
 72
    12
 73
     8
 74
     0
 42
0.00000001
 43
0.00000001
 40
0.0
 40
0.0
 40
0.0
 40
0.0
 40
0.0557150232819991
 40
0.2661494350942499
 40
0.4612021002765975
 40
0.7358756912836376
 40
1.0
 40
1.0
 40
1.0
 40
1.0
 10
8.893397477466046
 20
-2.049432952896571
 30
0.0
 10
8.896240652852097
 20
-2.048413569754375
 30
0.0
 10
8.909822438846167
 20
-2.043543999009215
 30
0.0
 10
8.930409045828794
 20
-2.029569148087586
 30
0.0
 10
8.962219910226446
 20
-2.009864899906279
 30
0.0
 10
9.002089771624082
 20
-1.987191575325062
 30
0.0
 10
9.035563026913069
 20
-1.968030018302032
 30
0.0
 10
9.051971963210388
 20
-1.958636824666282
 30
0.0
  0
SPLINE
  5
79
330
1F
100
AcDbEntity
  8
0
  6
Continuous
 62
     7
370
    25
100
AcDbSpline
210
0.0
220
0.0
230
1.0
 70
     8
 71
     3
 72
    12
 73
     8
 74
     0
 42
0.00000001
 43
0.00000001
 40
0.0
 40
0.0
 40
0.0
 40
0.0
 40
0.2883591655454406
 40
0.5742243119237939
 40
0.7627699848290805
 40
0.9517337364267096
 40
1.0
 40
1.0
 40
1.0
 40
1.0
 10
9.065745252346138
 20
-1.986687831892097
 30
0.0
 10
9.044559008139128
 20
-1.996539234794714
 30
0.0
 10
9.002369759605937
 20
-2.016156835790816
 30
0.0
 10
8.951778523594122
 20
-2.03446606399531
 30
0.0
 10
8.916085523128277
 20
-2.045882232960277
 30
0.0
 10
8.896510996105018
 20
-2.051609105790467
 30
0.0
 10
8.88695539617769
 20
-2.054098230520148
 30
0.0
 10
8.885011236184441
 20
-2.05460466201105
 30
0.0
  0
SPLINE
  5
7B
330
1F
100
AcDbEntity
  8
0
  6
Continuous
 62
     7
370
    25
100
AcDbSpline
210
0.0
220
0.0
230
1.0
 70
     8
 71
     3
 72
    12
 73
     8
 74
     0
 42
0.00000001
 43
0.00000001
 40
0.0
 40
0.0
 40
0.0
 40
0.0
 40
0.2641243097650516
 40
0.5387979018626339
 40
0.7338433677525686
 40
0.9442771260641544
 40
1.0
 40
1.0
 40
1.0
 40
1.0
 10
-9.051971963206286
 20
-1.958636824666338
 30
0.0
 10
-9.035563026814398
 20
-1.968030019388442
 30
0.0
 10
-9.002089771332493
 20
-1.987191578627568
 30
0.0
 10
-8.962220302457412
 20
-2.009864665299527
 30
0.0
 10
-8.93040972273927
 20
-2.029568750254104
 30
0.0
 10
-8.909823164360496
 20
-2.043543594344098
 30
0.0
 10
-8.896241014916692
 20
-2.048413324184683
 30
0.0
 10
-8.893397439707446
 20
-2.049432856704752
 30
0.0
  0
SPLINE
  5
7E
330
1F
100
AcDbEntity
  8
0
  6
Continuous
 62
     7
370
    25
100
AcDbSpline
210
0.0
220
0.0
230
1.0
 70
     8
 71
     3
 72
    12
 73
     8
 74
     0
 42
0.00000001
 43
0.00000001
 40
0.0
 40
0.0
 40
0.0
 40
0.0
 40
0.0482593125304927
 40
0.2372230020418704
 40
0.4257756809968837
 40
0.7116408308995661
 40
1.0
 40
1.0
 40
1.0
 40
1.0
 10
-8.885011214668157
 20
-2.054604676100186
 30
0.0
 10
-8.886955095655166
 20
-2.054098317527735
 30
0.0
 10
-8.896510417916717
 20
-2.051609266309054
 30
0.0
 10
-8.916084781756659
 20
-2.045882459905982
 30
0.0
 10
-8.95177807011062
 20
-2.034466229589877
 30
0.0
 10
-9.00236975635117
 20
-2.016156836532418
 30
0.0
 10
-9.04455900704834
 20
-1.996539235042672
 30
0.0
 10
-9.065745252342037
 20
-1.986687831892162
 30
0.0
  0
SPLINE
  5
84
330
1F
100
AcDbEntity
  8
0
  6
Continuous
 62
     7
370
    25
100
AcDbSpline
210
0.0
220
0.0
230
1.0
 70
     8
 71
     3
 72
    10
 73
     6
 74
     0
 42
0.00000001
 43
0.00000001
 40
0.0
 40
0.0
 40
0.0
 40
0.0
 40
0.2807170173591592
 40
0.5611132592633524
 40
1.0
 40
1.0
 40
1.0
 40
1.0
 10
-2.073764085767605
 20
-1.570464222136055
 30
0.0
 10
-2.06740147967866
 20
-1.572916185275886
 30
0.0
 10
-2.05468353805345
 20
-1.577817309696226
 30
0.0
 10
-2.038109730592645
 20
-1.59701927856573
 30
0.0
 10
-2.036139637462067
 20
-1.61462433525099
 30
0.0
 10
-2.034937540688063
 20
-1.625366457802964
 30
0.0
  0
SPLINE
  5
85
330
1F
100
AcDbEntity
  8
0
  6
Continuous
 62
     7
370
    25
100
AcDbSpline
210
0.0
220
0.0
230
1.0
 70
     8
 71
     3
 72
     9
 73
     5
 74
     0
 42
0.00000001
 43
0.00000001
 40
0.0
 40
0.0
 40
0.0
 40
0.0
 40
0.5602402381372233
 40
1.0
 40
1.0
 40
1.0
 40
1.0
 10
-2.107574383415717
 20
-1.566909401121647
 30
0.0
 10
-2.101191175380561
 20
-1.566962309883621
 30
0.0
 10
-2.089797477462003
 20
-1.56705674930152
 30
0.0
 10
-2.07866131980633
 20
-1.569423444721683
 30
0.0
 10
-2.073764085767605
 20
-1.570464222136055
 30
0.0
  0
SPLINE
  5
87
330
1F
100
AcDbEntity
  8
0
  6
Continuous
 62
     7
370
    25
100
AcDbSpline
210
0.0
220
0.0
230
1.0
 70
     8
 71
     3
 72
    11
 73
     7
 74
     0
 42
0.00000001
 43
0.00000001
 40
0.0
 40
0.0
 40
0.0
 40
0.0
 40
0.2811013383027713
 40
0.5578736296759254
 40
0.7785335806373579
 40
1.0
 40
1.0
 40
1.0
 40
1.0
 10
-2.181554158526601
 20
-1.590963689985783
 30
0.0
 10
-2.181419523237362
 20
-1.587234813819191
 30
0.0
 10
-2.181152326083685
 20
-1.579834487324022
 30
0.0
 10
-2.175124898247139
 20
-1.570492514916763
 30
0.0
 10
-2.165826012317889
 20
-1.567271665972519
 30
0.0
 10
-2.160015463417187
 20
-1.567030302826174
 30
0.0
 10
-2.15710488954975
 20
-1.56690940112165
 30
0.0
  0
SPLINE
  5
89
330
1F
100
AcDbEntity
  8
0
  6
Continuous
 62
     7
370
    25
100
AcDbSpline
210
0.0
220
0.0
230
1.0
 70
     8
 71
     3
 72
    10
 73
     6
 74
     0
 42
0.00000001
 43
0.00000001
 40
0.0
 40
0.0
 40
0.0
 40
0.0
 40
0.2802002682821745
 40
0.560107153175507
 40
1.0
 40
1.0
 40
1.0
 40
1.0
 10
-2.162516117093902
 20
-1.764083473387282
 30
0.0
 10
-2.165746147606193
 20
-1.763688163803846
 30
0.0
 10
-2.172202826630807
 20
-1.762897958545448
 30
0.0
 10
-2.18055315447288
 20
-1.753857538456808
 30
0.0
 10
-2.181174459172633
 20
-1.745519691814261
 30
0.0
 10
-2.181554158526601
 20
-1.740424164635856
 30
0.0
  0
SPLINE
  5
8A
330
1F
100
AcDbEntity
  8
0
  6
Continuous
 62
     7
370
    25
100
AcDbSpline
210
0.0
220
0.0
230
1.0
 70
     8
 71
     3
 72
    11
 73
     7
 74
     0
 42
0.00000001
 43
0.00000001
 40
0.0
 40
0.0
 40
0.0
 40
0.0
 40
0.280903901223432
 40
0.5602068665447298
 40
0.7800133066503203
 40
0.9999999999999999
 40
0.9999999999999999
 40
0.9999999999999999
 40
0.9999999999999999
 10
-2.143636067706289
 20
-1.740266172590772
 30
0.0
 10
-2.1437849174104
 20
-1.743473290539821
 30
0.0
 10
-2.144081768489942
 20
-1.749869248335534
 30
0.0
 10
-2.148178127651839
 20
-1.758081768411159
 30
0.0
 10
-2.154949318138809
 20
-1.763280984726167
 30
0.0
 10
-2.159993161687045
 20
-1.763815904086377
 30
0.0
 10
-2.162516117093902
 20
-1.764083473387282
 30
0.0
  0
SPLINE
  5
8D
330
1F
100
AcDbEntity
  8
0
  6
Continuous
 62
     7
370
    25
100
AcDbSpline
210
0.0
220
0.0
230
1.0
 70
     8
 71
     3
 72
    11
 73
     7
 74
     0
 42
0.00000001
 43
0.00000001
 40
0.0
 40
0.0
 40
0.0
 40
0.0
 40
0.1875023131228381
 40
0.3743573979452641
 40
0.5611846511062577
 40
0.9999999999999999
 40
0.9999999999999999
 40
0.9999999999999999
 40
0.9999999999999999
 10
-2.034937540688063
 20
-1.625366457802964
 30
0.0
 10
-2.035323387406509
 20
-1.632114303752844
 30
0.0
 10
-2.036093748961612
 20
-1.645586703156673
 30
0.0
 10
-2.045206665313479
 20
-1.664228026214205
 30
0.0
 10
-2.068561585931348
 20
-1.683247945789355
 30
0.0
 10
-2.091700567472648
 20
-1.684700571461289
 30
0.0
 10
-2.107929865517161
 20
-1.685719419025294
 30
0.0
  0
SPLINE
  5
8E
330
1F
100
AcDbEntity
  8
0
  6
Continuous
 62
     7
370
    25
100
AcDbSpline
210
0.0
220
0.0
230
1.0
 70
     8
 71
     3
 72
    11
 73
     7
 74
     0
 42
0.00000001
 43
0.00000001
 40
0.0
 40
0.0
 40
0.0
 40
0.0
 40
0.2810452728831529
 40
0.5600905589706952
 40
0.7798521895048895
 40
1.0
 40
1.0
 40
1.0
 40
1.0
 10
-1.675268650052883
 20
-1.566909401121648
 30
0.0
 10
-1.67272068164037
 20
-1.567016123561475
 30
0.0
 10
-1.667642876780804
 20
-1.567228808978186
 30
0.0
 10
-1.661012130687656
 20
-1.570398127863004
 30
0.0
 10
-1.657120169448625
 20
-1.57598300606483
 30
0.0
 10
-1.656764221121844
 20
-1.579991589978057
 30
0.0
 10
-1.656586090721625
 20
-1.581997641427232
 30
0.0
  0
SPLINE
  5
90
330
1F
100
AcDbEntity
  8
0
  6
Continuous
 62
     7
370
    25
100
AcDbSpline
210
0.0
220
0.0
230
1.0
 70
     8
 71
     3
 72
    11
 73
     7
 74
     0
 42
0.00000001
 43
0.00000001
 40
0.0
 40
0.0
 40
0.0
 40
0.0
 40
0.2812281265615835
 40
0.5588290374630668
 40
0.7787543915202427
 40
1.0
 40
1.0
 40
1.0
 40
1.0
 10
-1.802373250323476
 20
-1.5910821840196
 30
0.0
 10
-1.802235948837591
 20
-1.587455650104188
 30
0.0
 10
-1.80196311674879
 20
-1.580249356473266
 30
0.0
 10
-1.796654729778608
 20
-1.570830395814532
 30
0.0
 10
-1.78765415333964
 20
-1.567304180500334
 30
0.0
 10
-1.781989315135375
 20
-1.567041256524537
 30
0.0
 10
-1.779148419696031
 20
-1.566909401121645
 30
0.0
  0
SPLINE
  5
92
330
1F
100
AcDbEntity
  8
0
  6
Continuous
 62
     7
370
    25
100
AcDbSpline
210
0.0
220
0.0
230
1.0
 70
     8
 71
     3
 72
    11
 73
     7
 74
     0
 42
0.00000001
 43
0.00000001
 40
0.0
 40
0.0
 40
0.0
 40
0.0
 40
0.2810140540549925
 40
0.5581647592410275
 40
0.7786247943669128
 40
1.0
 40
1.0
 40
1.0
 40
1.0
 10
-1.779148419696035
 20
-1.76155560066592
 30
0.0
 10
-1.782798820588285
 20
-1.761420022342027
 30
0.0
 10
-1.790049437081498
 20
-1.761150729609435
 30
0.0
 10
-1.798997331594534
 20
-1.754981023950128
 30
0.0
 10
-1.802046142086976
 20
-1.745900045068485
 30
0.0
 10
-1.802264063784701
 20
-1.740225811202911
 30
0.0
 10
-1.802373250323472
 20
-1.737382817767975
 30
0.0
  0
SPLINE
  5
94
330
1F
100
AcDbEntity
  8
0
  6
Continuous
 62
     7
370
    25
100
AcDbSpline
210
0.0
220
0.0
230
1.0
 70
     8
 71
     3
 72
    10
 73
     6
 74
     0
 42
0.00000001
 43
0.00000001
 40
0.0
 40
0.0
 40
0.0
 40
0.0
 40
0.2800416316696687
 40
0.5598861357862652
 40
1.0
 40
1.0
 40
1.0
 40
1.0
 10
-1.653386751808664
 20
-1.746506858371612
 30
0.0
 10
-1.653720277988789
 20
-1.749059505236756
 30
0.0
 10
-1.654387095572517
 20
-1.754163002101957
 30
0.0
 10
-1.661518080837949
 20
-1.760808849887521
 30
0.0
 10
-1.668139873091766
 20
-1.761272294711803
 30
0.0
 10
-1.672187805173736
 20
-1.761555600665921
 30
0.0
  0
SPLINE
  5
95
330
1F
100
AcDbEntity
  8
0
  6
Continuous
 62
     7
370
    25
100
AcDbSpline
210
0.0
220
0.0
230
1.0
 70
     8
 71
     3
 72
    11
 73
     7
 74
     0
 42
0.00000001
 43
0.00000001
 40
0.0
 40
0.0
 40
0.0
 40
0.0
 40
0.280832170781626
 40
0.5599155513094581
 40
0.7796992009793736
 40
1.0
 40
1.0
 40
1.0
 40
1.0
 10
-1.672187805173733
 20
-1.731221128009673
 30
0.0
 10
-1.669623382036211
 20
-1.731347786836037
 30
0.0
 10
-1.664510504865336
 20
-1.731600315762456
 30
0.0
 10
-1.657882555281033
 20
-1.734852531386013
 30
0.0
 10
-1.653917571760206
 20
-1.740440786854526
 30
0.0
 10
-1.653563830354659
 20
-1.744483251080623
 30
0.0
 10
-1.653386751808664
 20
-1.746506858371612
 30
0.0
  0
SPLINE
  5
99
330
1F
100
AcDbEntity
  8
0
  6
Continuous
 62
     7
370
    25
100
AcDbSpline
210
0.0
220
0.0
230
1.0
 70
     8
 71
     3
 72
    10
 73
     6
 74
     0
 42
0.00000001
 43
0.00000001
 40
0.0
 40
0.0
 40
0.0
 40
0.0
 40
0.2807738770860977
 40
0.5602830252809228
 40
1.0
 40
1.0
 40
1.0
 40
1.0
 10
-1.664327700930772
 20
-1.660322197777942
 30
0.0
 10
-1.664602196867493
 20
-1.662836959481526
 30
0.0
 10
-1.665149952290647
 20
-1.667855155297203
 30
0.0
 10
-1.671747322009316
 20
-1.674845615658294
 30
0.0
 10
-1.678320261959535
 20
-1.675318697599675
 30
0.0
 10
-1.682338794070425
 20
-1.675607928139877
 30
0.0
  0
SPLINE
  5
9A
330
1F
100
AcDbEntity
  8
0
  6
Continuous
 62
     7
370
    25
100
AcDbSpline
210
0.0
220
0.0
230
1.0
 70
     8
 71
     3
 72
    11
 73
     7
 74
     0
 42
0.00000001
 43
0.00000001
 40
0.0
 40
0.0
 40
0.0
 40
0.0
 40
0.2808878320040322
 40
0.5597984905965451
 40
0.7797707238138329
 40
1.0
 40
1.0
 40
1.0
 40
1.0
 10
-1.68233879407042
 20
-1.645273455483628
 30
0.0
 10
-1.679844605171847
 20
-1.645382113766439
 30
0.0
 10
-1.674873784005537
 20
-1.645598665484876
 30
0.0
 10
-1.668465249307779
 20
-1.648895823615834
 30
0.0
 10
-1.66480462075892
 20
-1.654437776891189
 30
0.0
 10
-1.664486736080017
 20
-1.658359960733666
 30
0.0
 10
-1.664327700930772
 20
-1.660322197777942
 30
0.0
  0
SPLINE
  5
9E
330
1F
100
AcDbEntity
  8
0
  6
Continuous
 62
     7
370
    25
100
AcDbSpline
210
0.0
220
0.0
230
1.0
 70
     8
 71
     3
 72
    10
 73
     6
 74
     0
 42
0.00000001
 43
0.00000001
 40
0.0
 40
0.0
 40
0.0
 40
0.0
 40
0.2803477846605139
 40
0.5598415783643163
 40
1.0
 40
1.0
 40
1.0
 40
1.0
 10
-1.656586090721625
 20
-1.581997641427232
 30
0.0
 10
-1.656868537014323
 20
-1.584574533986709
 30
0.0
 10
-1.657432569216321
 20
-1.589720469416588
 30
0.0
 10
-1.664500938084063
 20
-1.596556151026859
 30
0.0
 10
-1.671182207875408
 20
-1.59698287689533
 30
0.0
 10
-1.675268650052887
 20
-1.597243873777899
 30
0.0
  0
SPLINE
  5
9F
330
1F
100
AcDbEntity
  8
0
  6
Continuous
 62
     7
370
    25
100
AcDbSpline
210
0.0
220
0.0
230
1.0
 70
     8
 71
     3
 72
    11
 73
     7
 74
     0
 42
0.00000001
 43
0.00000001
 40
0.0
 40
0.0
 40
0.0
 40
0.0
 40
0.1246621424783485
 40
0.2493991093237178
 40
0.4988915017134297
 40
1.0
 40
1.0
 40
1.0
 40
1.0
 10
-1.40802510579223
 20
-1.612450608117293
 30
0.0
 10
-1.407791721788024
 20
-1.614776862034696
 30
0.0
 10
-1.407324813698508
 20
-1.619430766127207
 30
0.0
 10
-1.401412752169687
 20
-1.626941801109275
 30
0.0
 10
-1.38696704129069
 20
-1.634706570605431
 30
0.0
 10
-1.373422363049079
 20
-1.637656103112631
 30
0.0
 10
-1.3643798033376
 20
-1.639625239871846
 30
0.0
  0
SPLINE
  5
A0
330
1F
100
AcDbEntity
  8
0
  6
Continuous
 62
     7
370
    25
100
AcDbSpline
210
0.0
220
0.0
230
1.0
 70
     8
 71
     3
 72
    11
 73
     7
 74
     0
 42
0.00000001
 43
0.00000001
 40
0.0
 40
0.0
 40
0.0
 40
0.0
 40
0.4990540308900254
 40
0.7492625184273285
 40
0.8746968002406181
 40
1.0
 40
1.0
 40
1.0
 40
1.0
 10
-1.372753381727081
 20
-1.589660255613832
 30
0.0
 10
-1.380595737649658
 20
-1.590332835761939
 30
0.0
 10
-1.392369980487601
 20
-1.591342624410909
 30
0.0
 10
-1.403383228183647
 20
-1.599885862095593
 30
0.0
 10
-1.407462795691051
 20
-1.60663180308129
 30
0.0
 10
-1.407837734429416
 20
-1.610511682554228
 30
0.0
 10
-1.40802510579223
 20
-1.612450608117293
 30
0.0
  0
SPLINE
  5
A1
330
1F
100
AcDbEntity
  8
0
  6
Continuous
 62
     7
370
    25
100
AcDbSpline
210
0.0
220
0.0
230
1.0
 70
     8
 71
     3
 72
    10
 73
     6
 74
     0
 42
0.00000001
 43
0.00000001
 40
0.0
 40
0.0
 40
0.0
 40
0.0
 40
0.2813723521606382
 40
0.5612453676808236
 40
1.0
 40
1.0
 40
1.0
 40
1.0
 10
-1.334756294884231
 20
-1.614938982827378
 30
0.0
 10
-1.336859226969173
 20
-1.610882647877229
 30
0.0
 10
-1.341053885336131
 20
-1.602791592792923
 30
0.0
 10
-1.353089506381935
 20
-1.590585037268674
 30
0.0
 10
-1.365298959324962
 20
-1.590010833155844
 30
0.0
 10
-1.372753381727081
 20
-1.589660255613832
 30
0.0
  0
SPLINE
  5
A2
330
1F
100
AcDbEntity
  8
0
  6
Continuous
 62
     7
370
    25
100
AcDbSpline
210
0.0
220
0.0
230
1.0
 70
     8
 71
     3
 72
    10
 73
     6
 74
     0
 42
0.00000001
 43
0.00000001
 40
0.0
 40
0.0
 40
0.0
 40
0.0
 40
0.2803740911870302
 40
0.5589470998439657
 40
1.0
 40
1.0
 40
1.0
 40
1.0
 10
-1.317140181857294
 20
-1.627420354389064
 30
0.0
 10
-1.319315490244837
 20
-1.627336805221
 30
0.0
 10
-1.323652133154088
 20
-1.627170243592619
 30
0.0
 10
-1.330101915106936
 20
-1.622485707352896
 30
0.0
 10
-1.332987650808592
 20
-1.61780670532988
 30
0.0
 10
-1.334756294884231
 20
-1.614938982827378
 30
0.0
  0
SPLINE
  5
A3
330
1F
100
AcDbEntity
  8
0
  6
Continuous
 62
     7
370
    25
100
AcDbSpline
210
0.0
220
0.0
230
1.0
 70
     8
 71
     3
 72
    11
 73
     7
 74
     0
 42
0.00000001
 43
0.00000001
 40
0.0
 40
0.0
 40
0.0
 40
0.0
 40
0.2796505247722099
 40
0.5596274404016902
 40
0.779745210034861
 40
0.9999999999999999
 40
0.9999999999999999
 40
0.9999999999999999
 40
0.9999999999999999
 10
-1.300037542976879
 20
-1.609172273181785
 30
0.0
 10
-1.300354595327732
 20
-1.611764842042909
 30
0.0
 10
-1.300989070073399
 20
-1.616953005651748
 30
0.0
 10
-1.305440196814196
 20
-1.622883204709045
 30
0.0
 10
-1.310984049630112
 20
-1.626872599904072
 30
0.0
 10
-1.315087712168305
 20
-1.627237731690921
 30
0.0
 10
-1.317140181857294
 20
-1.627420354389064
 30
0.0
  0
SPLINE
  5
A4
330
1F
100
AcDbEntity
  8
0
  6
Continuous
 62
     7
370
    25
100
AcDbSpline
210
0.0
220
0.0
230
1.0
 70
     8
 71
     3
 72
    11
 73
     7
 74
     0
 42
0.00000001
 43
0.00000001
 40
0.0
 40
0.0
 40
0.0
 40
0.0
 40
0.4984301161458789
 40
0.7489216638241474
 40
0.8745518069941489
 40
1.0
 40
1.0
 40
1.0
 40
1.0
 10
-1.369791030881745
 20
-1.561853655678936
 30
0.0
 10
-1.354033769591198
 20
-1.56335351698046
 30
0.0
 10
-1.330357522990612
 20
-1.565607150107866
 30
0.0
 10
-1.309251442177974
 20
-1.583934131961672
 30
0.0
 10
-1.301407706226003
 20
-1.597554892174504
 30
0.0
 10
-1.300494043357076
 20
-1.605301684147882
 30
0.0
 10
-1.300037542976879
 20
-1.609172273181785
 30
0.0
  0
SPLINE
  5
A5
330
1F
100
AcDbEntity
  8
0
  6
Continuous
 62
     7
370
    25
100
AcDbSpline
210
0.0
220
0.0
230
1.0
 70
     8
 71
     3
 72
    10
 73
     6
 74
     0
 42
0.00000001
 43
0.00000001
 40
0.0
 40
0.0
 40
0.0
 40
0.0
 40
0.2499791793796341
 40
0.5002289245242475
 40
1.0
 40
1.0
 40
1.0
 40
1.0
 10
-1.443415323891188
 20
-1.61612392316551
 30
0.0
 10
-1.442215026050696
 20
-1.607534138057827
 30
0.0
 10
-1.439813131223501
 20
-1.590345270661054
 30
0.0
 10
-1.413216260854151
 20
-1.56549923632507
 30
0.0
 10
-1.387156060975061
 20
-1.563311462987451
 30
0.0
 10
-1.369791030881745
 20
-1.561853655678936
 30
0.0
  0
SPLINE
  5
A6
330
1F
100
AcDbEntity
  8
0
  6
Continuous
 62
     7
370
    25
100
AcDbSpline
210
0.0
220
0.0
230
1.0
 70
     8
 71
     3
 72
    11
 73
     7
 74
     0
 42
0.00000001
 43
0.00000001
 40
0.0
 40
0.0
 40
0.0
 40
0.0
 40
0.2811728882841876
 40
0.561136098220209
 40
0.7804889782678058
 40
0.9999999999999999
 40
0.9999999999999999
 40
0.9999999999999999
 40
0.9999999999999999
 10
-1.377572139102163
 20
-1.673554031553774
 30
0.0
 10
-1.386219007186699
 20
-1.671311011478313
 30
0.0
 10
-1.403475542297144
 20
-1.666834621378775
 30
0.0
 10
-1.426185722869468
 20
-1.655957847482224
 30
0.0
 10
-1.441483115424721
 20
-1.637367846598006
 30
0.0
 10
-1.442771099696848
 20
-1.623206931906779
 30
0.0
 10
-1.443415323891188
 20
-1.61612392316551
 30
0.0
  0
SPLINE
  5
A7
330
1F
100
AcDbEntity
  8
0
  6
Continuous
 62
     7
370
    25
100
AcDbSpline
210
0.0
220
0.0
230
1.0
 70
     8
 71
     3
 72
    11
 73
     7
 74
     0
 42
0.00000001
 43
0.00000001
 40
0.0
 40
0.0
 40
0.0
 40
0.0
 40
0.1250476147793133
 40
0.2498167664050157
 40
0.498841581857652
 40
1.0
 40
1.0
 40
1.0
 40
1.0
 10
-1.329661051430252
 20
-1.705231436593252
 30
0.0
 10
-1.329853084443144
 20
-1.702609658674023
 30
0.0
 10
-1.330236722838873
 20
-1.697371941160019
 30
0.0
 10
-1.335679824411613
 20
-1.68809984821417
 30
0.0
 10
-1.351975598859686
 20
-1.678592669050293
 30
0.0
 10
-1.367320804784291
 20
-1.675571990113567
 30
0.0
 10
-1.377572139102163
 20
-1.673554031553774
 30
0.0
  0
SPLINE
  5
A8
330
1F
100
AcDbEntity
  8
0
  6
Continuous
 62
     7
370
    25
100
AcDbSpline
210
0.0
220
0.0
230
1.0
 70
     8
 71
     3
 72
    12
 73
     8
 74
     0
 42
0.00000001
 43
0.00000001
 40
0.0
 40
0.0
 40
0.0
 40
0.0
 40
0.2505691446749591
 40
0.500641839239689
 40
0.7498122522152437
 40
0.8748894109015435
 40
1.0
 40
1.0
 40
1.0
 40
1.0
 10
-1.370422999062079
 20
-1.733749000731025
 30
0.0
 10
-1.365808086247089
 20
-1.733524743506744
 30
0.0
 10
-1.356587404097161
 20
-1.733076673376752
 30
0.0
 10
-1.343436733560134
 20
-1.72820260069418
 30
0.0
 10
-1.334451237880367
 20
-1.720519297825976
 30
0.0
 10
-1.330197507788729
 20
-1.712160719418152
 30
0.0
 10
-1.329839886145034
 20
-1.707541403281228
 30
0.0
 10
-1.329661051430252
 20
-1.705231436593252
 30
0.0
  0
SPLINE
  5
A9
330
1F
100
AcDbEntity
  8
0
  6
Continuous
 62
     7
370
    25
100
AcDbSpline
210
0.0
220
0.0
230
1.0
 70
     8
 71
     3
 72
    10
 73
     6
 74
     0
 42
0.00000001
 43
0.00000001
 40
0.0
 40
0.0
 40
0.0
 40
0.0
 40
0.2818327631505869
 40
0.5615556390404858
 40
1.0
 40
1.0
 40
1.0
 40
1.0
 10
-1.412527879077142
 20
-1.703928002221303
 30
0.0
 10
-1.410446689224092
 20
-1.708703760993471
 30
0.0
 10
-1.406299889949129
 20
-1.718219525730074
 30
0.0
 10
-1.392472741003063
 20
-1.731885090440425
 30
0.0
 10
-1.378781539675843
 20
-1.73304243600541
 30
0.0
 10
-1.370422999062079
 20
-1.733749000731025
 30
0.0
  0
SPLINE
  5
AA
330
1F
100
AcDbEntity
  8
0
  6
Continuous
 62
     7
370
    25
100
AcDbSpline
210
0.0
220
0.0
230
1.0
 70
     8
 71
     3
 72
    10
 73
     6
 74
     0
 42
0.00000001
 43
0.00000001
 40
0.0
 40
0.0
 40
0.0
 40
0.0
 40
0.2795294248384464
 40
0.5590229659262405
 40
1.0
 40
1.0
 40
1.0
 40
1.0
 10
-1.42994650204772
 20
-1.688168295724102
 30
0.0
 10
-1.427574883043613
 20
-1.688445022988178
 30
0.0
 10
-1.42283194948487
 20
-1.688998441992298
 30
0.0
 10
-1.416408401481987
 20
-1.695010031870416
 30
0.0
 10
-1.414001231165638
 20
-1.700542037943602
 30
0.0
 10
-1.412527879077142
 20
-1.703928002221303
 30
0.0
  0
SPLINE
  5
AB
330
1F
100
AcDbEntity
  8
0
  6
Continuous
 62
     7
370
    25
100
AcDbSpline
210
0.0
220
0.0
230
1.0
 70
     8
 71
     3
 72
    11
 73
     7
 74
     0
 42
0.00000001
 43
0.00000001
 40
0.0
 40
0.0
 40
0.0
 40
0.0
 40
0.2798043716506751
 40
0.5595277578042029
 40
0.7797074047317339
 40
1.0
 40
1.0
 40
1.0
 40
1.0
 10
-1.447128136950678
 20
-1.705784408751045
 30
0.0
 10
-1.446842100750323
 20
-1.703212437797597
 30
0.0
 10
-1.446270111138828
 20
-1.698069240312045
 30
0.0
 10
-1.441739621110896
 20
-1.692211619946341
 30
0.0
 10
-1.436018477895794
 20
-1.688656129020791
 30
0.0
 10
-1.431970839969683
 20
-1.68833093461905
 30
0.0
 10
-1.42994650204772
 20
-1.688168295724102
 30
0.0
  0
SPLINE
  5
AC
330
1F
100
AcDbEntity
  8
0
  6
Continuous
 62
     7
370
    25
100
AcDbSpline
210
0.0
220
0.0
230
1.0
 70
     8
 71
     3
 72
     9
 73
     5
 74
     0
 42
0.00000001
 43
0.00000001
 40
0.0
 40
0.0
 40
0.0
 40
0.0
 40
0.5601567125850567
 40
1.0
 40
1.0
 40
1.0
 40
1.0
 10
-1.418057600655101
 20
-1.752668548129912
 30
0.0
 10
-1.426617526642973
 20
-1.745731199911154
 30
0.0
 10
-1.441898832383949
 20
-1.733346543862416
 30
0.0
 10
-1.445530689136997
 20
-1.714204089018698
 30
0.0
 10
-1.447128136950678
 20
-1.705784408751045
 30
0.0
  0
SPLINE
  5
AD
330
1F
100
AcDbEntity
  8
0
  6
Continuous
 62
     7
370
    25
100
AcDbSpline
210
0.0
220
0.0
230
1.0
 70
     8
 71
     3
 72
     9
 73
     5
 74
     0
 42
0.00000001
 43
0.00000001
 40
0.0
 40
0.0
 40
0.0
 40
0.0
 40
0.5602561785423915
 40
1.0
 40
1.0
 40
1.0
 40
1.0
 10
-1.36994902292683
 20
-1.764083473387273
 30
0.0
 10
-1.379388094829922
 20
-1.763735050601203
 30
0.0
 10
-1.396235873158132
 20
-1.763113151549635
 30
0.0
 10
-1.411392546985616
 20
-1.755858664144265
 30
0.0
 10
-1.418057600655101
 20
-1.752668548129912
 30
0.0
  0
SPLINE
  5
AE
330
1F
100
AcDbEntity
  8
0
  6
Continuous
 62
     7
370
    25
100
AcDbSpline
210
0.0
220
0.0
230
1.0
 70
     8
 71
     3
 72
    10
 73
     6
 74
     0
 42
0.00000001
 43
0.00000001
 40
0.0
 40
0.0
 40
0.0
 40
0.0
 40
0.27997002184209
 40
0.559874023074892
 40
1.0
 40
1.0
 40
1.0
 40
1.0
 10
-1.291742960609938
 20
-1.701005149387233
 30
0.0
 10
-1.293218108757433
 20
-1.711588500471164
 30
0.0
 10
-1.296168057193111
 20
-1.732752706945801
 30
0.0
 10
-1.325964285481807
 20
-1.759895162768625
 30
0.0
 10
-1.353262623608732
 20
-1.762494562607975
 30
0.0
 10
-1.369949022926831
 20
-1.764083473387273
 30
0.0
  0
SPLINE
  5
AF
330
1F
100
AcDbEntity
  8
0
  6
Continuous
 62
     7
370
    25
100
AcDbSpline
210
0.0
220
0.0
230
1.0
 70
     8
 71
     3
 72
    11
 73
     7
 74
     0
 42
0.00000001
 43
0.00000001
 40
0.0
 40
0.0
 40
0.0
 40
0.0
 40
0.2812798086146414
 40
0.5614528554503313
 40
0.7803774103685142
 40
1.0
 40
1.0
 40
1.0
 40
1.0
 10
-1.3643798033376
 20
-1.639625239871846
 30
0.0
 10
-1.354911188207983
 20
-1.641999812175126
 30
0.0
 10
-1.336011214449231
 20
-1.646739613466645
 30
0.0
 10
-1.310644666325751
 20
-1.657477919090271
 30
0.0
 10
-1.293569431382813
 20
-1.677720581968523
 30
0.0
 10
-1.292352429900598
 20
-1.693235395280706
 30
0.0
 10
-1.291742960609938
 20
-1.701005149387233
 30
0.0
  0
SPLINE
  5
B0
330
1F
100
AcDbEntity
  8
0
  6
Continuous
 62
     7
370
    25
100
AcDbSpline
210
0.0
220
0.0
230
1.0
 70
     8
 71
     3
 72
     9
 73
     5
 74
     0
 42
0.00000001
 43
0.00000001
 40
0.0
 40
0.0
 40
0.0
 40
0.0
 40
0.5578904246019035
 40
1.0
 40
1.0
 40
1.0
 40
1.0
 10
-0.8495627244293158
 20
-1.745835392179997
 30
0.0
 10
-0.8593486533817023
 20
-1.752105498850306
 30
0.0
 10
-0.8768896050109933
 20
-1.763344456168463
 30
0.0
 10
-0.8975997093251681
 20
-1.763856911831625
 30
0.0
 10
-0.9067558447499582
 20
-1.764083473387275
 30
0.0
  0
SPLINE
  5
B1
330
1F
100
AcDbEntity
  8
0
  6
Continuous
 62
     7
370
    25
100
AcDbSpline
210
0.0
220
0.0
230
1.0
 70
     8
 71
     3
 72
     9
 73
     5
 74
     0
 42
0.00000001
 43
0.00000001
 40
0.0
 40
0.0
 40
0.0
 40
0.0
 40
0.5618830719153592
 40
1.0
 40
1.0
 40
1.0
 40
1.0
 10
-0.8291422526021275
 20
-1.680347689492414
 30
0.0
 10
-0.82914219015717
 20
-1.693920421838774
 30
0.0
 10
-0.8291420790220233
 20
-1.71807621692278
 30
0.0
 10
-0.8433416513992779
 20
-1.737378663556371
 30
0.0
 10
-0.8495627244293158
 20
-1.745835392179997
 30
0.0
  0
SPLINE
  5
B3
330
1F
100
AcDbEntity
  8
0
  6
Continuous
 62
     7
370
    25
100
AcDbSpline
210
0.0
220
0.0
230
1.0
 70
     8
 71
     3
 72
    10
 73
     6
 74
     0
 42
0.00000001
 43
0.00000001
 40
0.0
 40
0.0
 40
0.0
 40
0.0
 40
0.2799727566502135
 40
0.5595509455786627
 40
0.9999999999999999
 40
0.9999999999999999
 40
0.9999999999999999
 40
0.9999999999999999
 10
-0.8482987880686399
 20
-1.561853655678937
 30
0.0
 10
-0.8450252659367882
 20
-1.562265836842354
 30
0.0
 10
-0.8384828350725637
 20
-1.563089618279159
 30
0.0
 10
-0.8299424868927371
 20
-1.572237472021967
 30
0.0
 10
-0.8294459748214357
 20
-1.580743938123683
 30
0.0
 10
-0.8291422526021264
 20
-1.585947442554346
 30
0.0
  0
SPLINE
  5
B4
330
1F
100
AcDbEntity
  8
0
  6
Continuous
 62
     7
370
    25
100
AcDbSpline
210
0.0
220
0.0
230
1.0
 70
     8
 71
     3
 72
    11
 73
     7
 74
     0
 42
0.00000001
 43
0.00000001
 40
0.0
 40
0.0
 40
0.0
 40
0.0
 40
0.2810567432908168
 40
0.5604411006524608
 40
0.7800941208618922
 40
0.9999999999999999
 40
0.9999999999999999
 40
0.9999999999999999
 40
0.9999999999999999
 10
-0.8670603434224374
 20
-1.586026438576887
 30
0.0
 10
-0.8669382111753744
 20
-1.582784639659642
 30
0.0
 10
-0.8666946734108371
 20
-1.57632033166261
 30
0.0
 10
-0.8628892674678065
 20
-1.567819723149121
 30
0.0
 10
-0.8559614260707061
 20
-1.562578709364394
 30
0.0
 10
-0.8508539800991088
 20
-1.562095432909995
 30
0.0
 10
-0.8482987880686399
 20
-1.561853655678937
 30
0.0
  0
SPLINE
  5
B6
330
1F
100
AcDbEntity
  8
0
  6
Continuous
 62
     7
370
    25
100
AcDbSpline
210
0.0
220
0.0
230
1.0
 70
     8
 71
     3
 72
    11
 73
     7
 74
     0
 42
0.00000001
 43
0.00000001
 40
0.0
 40
0.0
 40
0.0
 40
0.0
 40
0.1877323562678899
 40
0.3747018880165738
 40
0.5610517356127872
 40
1.0
 40
1.0
 40
1.0
 40
1.0
 10
-0.9098366896291076
 20
-1.733749000731024
 30
0.0
 10
-0.90510252201577
 20
-1.733540123334262
 30
0.0
 10
-0.8956534234257902
 20
-1.733123217285212
 30
0.0
 10
-0.8819462224002604
 20
-1.727985904515133
 30
0.0
 10
-0.868419133095638
 20
-1.711377098473426
 30
0.0
 10
-0.8676207760271095
 20
-1.695095157976352
 30
0.0
 10
-0.8670603434224433
 20
-1.683665522439188
 30
0.0
  0
SPLINE
  5
B7
330
1F
100
AcDbEntity
  8
0
  6
Continuous
 62
     7
370
    25
100
AcDbSpline
210
0.0
220
0.0
230
1.0
 70
     8
 71
     3
 72
    11
 73
     7
 74
     0
 42
0.00000001
 43
0.00000001
 40
0.0
 40
0.0
 40
0.0
 40
0.0
 40
0.2815953692423662
 40
0.5597434595540135
 40
0.7789936447083005
 40
0.9999999999999999
 40
0.9999999999999999
 40
0.9999999999999999
 40
0.9999999999999999
 10
-0.9530080159484814
 20
-1.682836064202494
 30
0.0
 10
-0.952789770506271
 20
-1.690034927003432
 30
0.0
 10
-0.9523559513735795
 20
-1.704344524422926
 30
0.0
 10
-0.9440708265679096
 20
-1.723929693108509
 30
0.0
 10
-0.9268458008437488
 20
-1.733032765725091
 30
0.0
 10
-0.9155214508648117
 20
-1.733509621674353
 30
0.0
 10
-0.9098366896291076
 20
-1.733749000731024
 30
0.0
  0
SPLINE
  5
B9
330
1F
100
AcDbEntity
  8
0
  6
Continuous
 62
     7
370
    25
100
AcDbSpline
210
0.0
220
0.0
230
1.0
 70
     8
 71
     3
 72
    10
 73
     6
 74
     0
 42
0.00000001
 43
0.00000001
 40
0.0
 40
0.0
 40
0.0
 40
0.0
 40
0.2801749416264625
 40
0.5596134021378145
 40
1.0
 40
1.0
 40
1.0
 40
1.0
 10
-0.9721645514149938
 20
-1.561853655678941
 30
0.0
 10
-0.9688648024031115
 20
-1.562234127924961
 30
0.0
 10
-0.96227397825581
 20
-1.562994072289644
 30
0.0
 10
-0.953844677216783
 20
-1.572320822623156
 30
0.0
 10
-0.9533255911146407
 20
-1.580824138161243
 30
0.0
 10
-0.9530080159484796
 20
-1.586026438576885
 30
0.0
  0
SPLINE
  5
BA
330
1F
100
AcDbEntity
  8
0
  6
Continuous
 62
     7
370
    25
100
AcDbSpline
210
0.0
220
0.0
230
1.0
 70
     8
 71
     3
 72
    11
 73
     7
 74
     0
 42
0.00000001
 43
0.00000001
 40
0.0
 40
0.0
 40
0.0
 40
0.0
 40
0.2808181053146888
 40
0.5601086957186487
 40
0.7799054619568467
 40
1.0
 40
1.0
 40
1.0
 40
1.0
 10
-0.9909261067687928
 20
-1.585868446531804
 30
0.0
 10
-0.9907868949071512
 20
-1.582647092601852
 30
0.0
 10
-0.9905092284291832
 20
-1.576221907352019
 30
0.0
 10
-0.9866489046044626
 20
-1.567823376332807
 30
0.0
 10
-0.9797932235998326
 20
-1.562577808988118
 30
0.0
 10
-0.9747085894423717
 20
-1.562095149022941
 30
0.0
 10
-0.9721645514149938
 20
-1.561853655678941
 30
0.0
  0
SPLINE
  5
BC
330
1F
100
AcDbEntity
  8
0
  6
Continuous
 62
     7
370
    25
100
AcDbSpline
210
0.0
220
0.0
230
1.0
 70
     8
 71
     3
 72
    11
 73
     7
 74
     0
 42
0.00000001
 43
0.00000001
 40
0.0
 40
0.0
 40
0.0
 40
0.0
 40
0.281236085472718
 40
0.5585037494636863
 40
0.7786403445135633
 40
1.0
 40
1.0
 40
1.0
 40
1.0
 10
-0.9067558447499582
 20
-1.764083473387275
 30
0.0
 10
-0.919689622424505
 20
-1.763606734259735
 30
0.0
 10
-0.9453746738780634
 20
-1.762659983099409
 30
0.0
 10
-0.9781536089105675
 20
-1.742379693810777
 30
0.0
 10
-0.9897886424395346
 20
-1.710178725192979
 30
0.0
 10
-0.9905462523995944
 20
-1.690020330657027
 30
0.0
 10
-0.9909261067687948
 20
-1.679913211368432
 30
0.0
  0
SPLINE
  5
BD
330
1F
100
AcDbEntity
  8
0
  6
Continuous
 62
     7
370
    25
100
AcDbSpline
210
0.0
220
0.0
230
1.0
 70
     8
 71
     3
 72
    11
 73
     7
 74
     0
 42
0.00000001
 43
0.00000001
 40
0.0
 40
0.0
 40
0.0
 40
0.0
 40
0.2808936797530759
 40
0.5600902889428758
 40
0.779841749522537
 40
0.9999999999999999
 40
0.9999999999999999
 40
0.9999999999999999
 40
0.9999999999999999
 10
-0.4876819451629625
 20
-1.566909401121644
 30
0.0
 10
-0.484912241129606
 20
-1.567030912812628
 30
0.0
 10
-0.4793895667366019
 20
-1.56727320205948
 30
0.0
 10
-0.4721749408695562
 20
-1.570757295798381
 30
0.0
 10
-0.4680325838166298
 20
-1.576888084749373
 30
0.0
 10
-0.4676239641446528
 20
-1.581241066386634
 30
0.0
 10
-0.4674194653808566
 20
-1.583419569832983
 30
0.0
  0
SPLINE
  5
BF
330
1F
100
AcDbEntity
  8
0
  6
Continuous
 62
     7
370
    25
100
AcDbSpline
210
0.0
220
0.0
230
1.0
 70
     8
 71
     3
 72
    10
 73
     6
 74
     0
 42
0.00000001
 43
0.00000001
 40
0.0
 40
0.0
 40
0.0
 40
0.0
 40
0.2804203708698795
 40
0.5600921305274289
 40
1.0
 40
1.0
 40
1.0
 40
1.0
 10
-0.6319681803365018
 20
-1.583419569832987
 30
0.0
 10
-0.6316734966289125
 20
-1.580650746464229
 30
0.0
 10
-0.6310849159024006
 20
-1.575120491387355
 30
0.0
 10
-0.6235193289231827
 20
-1.56776797393817
 30
0.0
 10
-0.6163593616271306
 20
-1.567235142398681
 30
0.0
 10
-0.6119821866332982
 20
-1.566909401121643
 30
0.0
  0
SPLINE
  5
C0
330
1F
100
AcDbEntity
  8
0
  6
Continuous
 62
     7
370
    25
100
AcDbSpline
210
0.0
220
0.0
230
1.0
 70
     8
 71
     3
 72
    11
 73
     7
 74
     0
 42
0.00000001
 43
0.00000001
 40
0.0
 40
0.0
 40
0.0
 40
0.0
 40
0.2809390674211059
 40
0.5600592284564241
 40
0.7797379131684988
 40
1.0
 40
1.0
 40
1.0
 40
1.0
 10
-0.6119821866332975
 20
-1.599771746499247
 30
0.0
 10
-0.6147249407091055
 20
-1.599662119007083
 30
0.0
 10
-0.6201926912275492
 20
-1.599443573792839
 30
0.0
 10
-0.6272602255751129
 20
-1.595904113422201
 30
0.0
 10
-0.6314160033589653
 20
-1.589892494338297
 30
0.0
 10
-0.6317839586963958
 20
-1.585579117979978
 30
0.0
 10
-0.6319681803365018
 20
-1.583419569832987
 30
0.0
  0
SPLINE
  5
C3
330
1F
100
AcDbEntity
  8
0
  6
Continuous
 62
     7
370
    25
100
AcDbSpline
210
0.0
220
0.0
230
1.0
 70
     8
 71
     3
 72
    10
 73
     6
 74
     0
 42
0.00000001
 43
0.00000001
 40
0.0
 40
0.0
 40
0.0
 40
0.0
 40
0.2799983909137952
 40
0.5598079034654412
 40
1.0
 40
1.0
 40
1.0
 40
1.0
 10
-0.5496938228586786
 20
-1.764083473387271
 30
0.0
 10
-0.5529414434314709
 20
-1.763679998612081
 30
0.0
 10
-0.5594344938314135
 20
-1.76287332123346
 30
0.0
 10
-0.5678680122977672
 20
-1.753784979892835
 30
0.0
 10
-0.568428619939346
 20
-1.745370866288535
 30
0.0
 10
-0.5687713623026486
 20
-1.740226674579494
 30
0.0
  0
SPLINE
  5
C4
330
1F
100
AcDbEntity
  8
0
  6
Continuous
 62
     7
370
    25
100
AcDbSpline
210
0.0
220
0.0
230
1.0
 70
     8
 71
     3
 72
    11
 73
     7
 74
     0
 42
0.00000001
 43
0.00000001
 40
0.0
 40
0.0
 40
0.0
 40
0.0
 40
0.2809525957424188
 40
0.5602194917988269
 40
0.780021877658498
 40
1.0
 40
1.0
 40
1.0
 40
1.0
 10
-0.5308532714823363
 20
-1.740226674579489
 30
0.0
 10
-0.5309790516992218
 20
-1.743445938568408
 30
0.0
 10
-0.5312298574588049
 20
-1.749865151144368
 30
0.0
 10
-0.5351874808892658
 20
-1.758224209657215
 30
0.0
 10
-0.5420920089761136
 20
-1.763349926707697
 30
0.0
 10
-0.5471592099459217
 20
-1.763838892697073
 30
0.0
 10
-0.5496938228586786
 20
-1.764083473387271
 30
0.0
  0
SPLINE
  5
C7
330
1F
100
AcDbEntity
  8
0
  6
Continuous
 62
     7
370
    25
100
AcDbSpline
210
0.0
220
0.0
230
1.0
 70
     8
 71
     3
 72
    10
 73
     6
 74
     0
 42
0.00000001
 43
0.00000001
 40
0.0
 40
0.0
 40
0.0
 40
0.0
 40
0.2802367738577244
 40
0.5598983450287652
 40
1.0
 40
1.0
 40
1.0
 40
1.0
 10
-0.4674194653808566
 20
-1.583419569832983
 30
0.0
 10
-0.4677506802630217
 20
-1.586193009088513
 30
0.0
 10
-0.4684124301890585
 20
-1.591734194950143
 30
0.0
 10
-0.476092977126341
 20
-1.59901942550009
 30
0.0
 10
-0.4832846019074006
 20
-1.599486284181879
 30
0.0
 10
-0.4876819451629601
 20
-1.59977174649925
 30
0.0
  0
SPLINE
  5
C8
330
1F
100
AcDbEntity
  8
0
  6
Continuous
 62
     7
370
    25
100
AcDbSpline
210
0.0
220
0.0
230
1.0
 70
     8
 71
     3
 72
    10
 73
     6
 74
     0
 42
0.00000001
 43
0.00000001
 40
0.0
 40
0.0
 40
0.0
 40
0.0
 40
0.2807305895735669
 40
0.5617657646357881
 40
1.0
 40
1.0
 40
1.0
 40
1.0
 10
-0.220398902891027
 20
-1.575440971556212
 30
0.0
 10
-0.2192462172204476
 20
-1.573305806680933
 30
0.0
 10
-0.2169395952449039
 20
-1.569033160331256
 30
0.0
 10
-0.2099787607511996
 20
-1.563444198361144
 30
0.0
 10
-0.2037645848698045
 20
-1.562455839748666
 30
0.0
 10
-0.1999784310638373
 20
-1.561853655678932
 30
0.0
  0
SPLINE
  5
C9
330
1F
100
AcDbEntity
  8
0
  6
Continuous
 62
     7
370
    25
100
AcDbSpline
210
0.0
220
0.0
230
1.0
 70
     8
 71
     3
 72
     9
 73
     5
 74
     0
 42
0.00000001
 43
0.00000001
 40
0.0
 40
0.0
 40
0.0
 40
0.0
 40
0.5602573241062329
 40
1.0
 40
1.0
 40
1.0
 40
1.0
 10
-0.2224527994771263
 20
-1.590529211861794
 30
0.0
 10
-0.2224186768433667
 20
-1.587660171713744
 30
0.0
 10
-0.2223577715552225
 20
-1.582539238841287
 30
0.0
 10
-0.2209972029640474
 20
-1.577609005540626
 30
0.0
 10
-0.220398902891027
 20
-1.575440971556211
 30
0.0
  0
SPLINE
  5
CB
330
1F
100
AcDbEntity
  8
0
  6
Continuous
 62
     7
370
    25
100
AcDbSpline
210
0.0
220
0.0
230
1.0
 70
     8
 71
     3
 72
    10
 73
     6
 74
     0
 42
0.00000001
 43
0.00000001
 40
0.0
 40
0.0
 40
0.0
 40
0.0
 40
0.2797244341322747
 40
0.5595148499085938
 40
1.0
 40
1.0
 40
1.0
 40
1.0
 10
-0.2047576904276472
 20
-1.764083473387268
 30
0.0
 10
-0.2078104764023174
 20
-1.763677596306392
 30
0.0
 10
-0.2139167684454823
 20
-1.762865746405998
 30
0.0
 10
-0.2215893507376754
 20
-1.75410491734172
 30
0.0
 10
-0.222125138192278
 20
-1.746228465752218
 30
0.0
 10
-0.2224527994771272
 20
-1.741411614917622
 30
0.0
  0
SPLINE
  5
CC
330
1F
100
AcDbEntity
  8
0
  6
Continuous
 62
     7
370
    25
100
AcDbSpline
210
0.0
220
0.0
230
1.0
 70
     8
 71
     3
 72
    11
 73
     7
 74
     0
 42
0.00000001
 43
0.00000001
 40
0.0
 40
0.0
 40
0.0
 40
0.0
 40
0.280957457104342
 40
0.5602289954892039
 40
0.7800675876561406
 40
0.9999999999999999
 40
0.9999999999999999
 40
0.9999999999999999
 40
0.9999999999999999
 10
-0.1870625813781684
 20
-1.741530108951439
 30
0.0
 10
-0.1871901871355996
 20
-1.7445597074257
 30
0.0
 10
-0.1874446329369004
 20
-1.750600724907362
 30
0.0
 10
-0.1912163626468082
 20
-1.75840678111776
 30
0.0
 10
-0.1976029121321435
 20
-1.763355754589239
 30
0.0
 10
-0.2023724251552343
 20
-1.763840865956915
 30
0.0
 10
-0.2047576904276472
 20
-1.764083473387268
 30
0.0
  0
SPLINE
  5
CF
330
1F
100
AcDbEntity
  8
0
  6
Continuous
 62
     7
370
    25
100
AcDbSpline
210
0.0
220
0.0
230
1.0
 70
     8
 71
     3
 72
    10
 73
     6
 74
     0
 42
0.00000001
 43
0.00000001
 40
0.0
 40
0.0
 40
0.0
 40
0.0
 40
0.2794127790595738
 40
0.5587557974731848
 40
1.0
 40
1.0
 40
1.0
 40
1.0
 10
-0.0816423892954469
 20
-1.764083473387272
 30
0.0
 10
-0.0854548526800277
 20
-1.763726109964233
 30
0.0
 10
-0.0930788275961305
 20
-1.763011472340642
 30
0.0
 10
-0.1037032616155973
 20
-1.753916479300591
 30
0.0
 10
-0.1089081784716399
 20
-1.745817791354691
 30
0.0
 10
-0.1120953559855091
 20
-1.740858642759828
 30
0.0
  0
SPLINE
  5
D0
330
1F
100
AcDbEntity
  8
0
  6
Continuous
 62
     7
370
    25
100
AcDbSpline
210
0.0
220
0.0
230
1.0
 70
     8
 71
     3
 72
    11
 73
     7
 74
     0
 42
0.00000001
 43
0.00000001
 40
0.0
 40
0.0
 40
0.0
 40
0.0
 40
0.2809830066607734
 40
0.5602305863561762
 40
0.7796112319978394
 40
0.9999999999999999
 40
0.9999999999999999
 40
0.9999999999999999
 40
0.9999999999999999
 10
-0.0606689453104604
 20
-1.738330770038474
 30
0.0
 10
-0.0608145828362816
 20
-1.741869759264328
 30
0.0
 10
-0.061104958391216
 20
-1.74892587996241
 30
0.0
 10
-0.0652597766096989
 20
-1.758343354092188
 30
0.0
 10
-0.0732612505472975
 20
-1.763530433256185
 30
0.0
 10
-0.0788444101224033
 20
-1.763898845162501
 30
0.0
 10
-0.0816423892954469
 20
-1.764083473387273
 30
0.0
  0
SPLINE
  5
D2
330
1F
100
AcDbEntity
  8
0
  6
Continuous
 62
     7
370
    25
100
AcDbSpline
210
0.0
220
0.0
230
1.0
 70
     8
 71
     3
 72
    10
 73
     6
 74
     0
 42
0.00000001
 43
0.00000001
 40
0.0
 40
0.0
 40
0.0
 40
0.0
 40
0.2801735021771899
 40
0.5593911911402124
 40
1.0
 40
1.0
 40
1.0
 40
1.0
 10
-0.0785615444162958
 20
-1.561853655678933
 30
0.0
 10
-0.0754689294445489
 20
-1.562209687650448
 30
0.0
 10
-0.0692942499715078
 20
-1.562920536988741
 30
0.0
 10
-0.0613901541187351
 20
-1.571665845532289
 30
0.0
 10
-0.0609427830264656
 20
-1.579642791916044
 30
0.0
 10
-0.0606689453104612
 20
-1.584525514148575
 30
0.0
  0
SPLINE
  5
D3
330
1F
100
AcDbEntity
  8
0
  6
Continuous
 62
     7
370
    25
100
AcDbSpline
210
0.0
220
0.0
230
1.0
 70
     8
 71
     3
 72
    11
 73
     7
 74
     0
 42
0.00000001
 43
0.00000001
 40
0.0
 40
0.0
 40
0.0
 40
0.0
 40
0.2809736214790496
 40
0.5603986596243391
 40
0.7799137747365846
 40
1.0
 40
1.0
 40
1.0
 40
1.0
 10
-0.0960591634094193
 20
-1.58452551414858
 30
0.0
 10
-0.09593119073486
 20
-1.581496647854182
 30
0.0
 10
-0.0956759507058704
 20
-1.575455608831987
 30
0.0
 10
-0.0922028104488995
 20
-1.567473356377539
 30
0.0
 10
-0.0857324387489602
 20
-1.562539382015838
 30
0.0
 10
-0.0809539118757461
 20
-1.562082429008785
 30
0.0
 10
-0.0785615444162958
 20
-1.561853655678933
 30
0.0
  0
SPLINE
  5
D6
330
1F
100
AcDbEntity
  8
0
  6
Continuous
 62
     7
370
    25
100
AcDbSpline
210
0.0
220
0.0
230
1.0
 70
     8
 71
     3
 72
    10
 73
     6
 74
     0
 42
0.00000001
 43
0.00000001
 40
0.0
 40
0.0
 40
0.0
 40
0.0
 40
0.2784986954190521
 40
0.5580248342436043
 40
1.0
 40
1.0
 40
1.0
 40
1.0
 10
-0.1999784310638373
 20
-1.561853655678932
 30
0.0
 10
-0.1963755658763885
 20
-1.562291116704259
 30
0.0
 10
-0.1891565437333836
 20
-1.563167652645582
 30
0.0
 10
-0.1801491574477144
 20
-1.572932714807024
 30
0.0
 10
-0.1756675954974329
 20
-1.580783034500953
 30
0.0
 10
-0.1729222933430956
 20
-1.585591960452902
 30
0.0
  0
SPLINE
  5
D7
330
1F
100
AcDbEntity
  8
0
  6
Continuous
 62
     7
370
    25
100
AcDbSpline
210
0.0
220
0.0
230
1.0
 70
     8
 71
     3
 72
    10
 73
     6
 74
     0
 42
0.00000001
 43
0.00000001
 40
0.0
 40
0.0
 40
0.0
 40
0.0
 40
0.2807170173591571
 40
0.5611132592634104
 40
1.0
 40
1.0
 40
1.0
 40
1.0
 10
0.3883839448313429
 20
-1.570464222136045
 30
0.0
 10
0.3947465509202883
 20
-1.572916185275877
 30
0.0
 10
0.4074644925455003
 20
-1.577817309696218
 30
0.0
 10
0.4240383000063058
 20
-1.597019278565723
 30
0.0
 10
0.4260083931368877
 20
-1.614624335250984
 30
0.0
 10
0.4272104899108918
 20
-1.625366457802958
 30
0.0
  0
SPLINE
  5
D8
330
1F
100
AcDbEntity
  8
0
  6
Continuous
 62
     7
370
    25
100
AcDbSpline
210
0.0
220
0.0
230
1.0
 70
     8
 71
     3
 72
     9
 73
     5
 74
     0
 42
0.00000001
 43
0.00000001
 40
0.0
 40
0.0
 40
0.0
 40
0.0
 40
0.5602402381372019
 40
1.0
 40
1.0
 40
1.0
 40
1.0
 10
0.3545736471832297
 20
-1.566909401121638
 30
0.0
 10
0.3609568552183861
 20
-1.566962309883612
 30
0.0
 10
0.3723505531369441
 20
-1.567056749301512
 30
0.0
 10
0.3834867107926174
 20
-1.569423444721673
 30
0.0
 10
0.388383944831343
 20
-1.570464222136045
 30
0.0
  0
SPLINE
  5
DA
330
1F
100
AcDbEntity
  8
0
  6
Continuous
 62
     7
370
    25
100
AcDbSpline
210
0.0
220
0.0
230
1.0
 70
     8
 71
     3
 72
    11
 73
     7
 74
     0
 42
0.00000001
 43
0.00000001
 40
0.0
 40
0.0
 40
0.0
 40
0.0
 40
0.2811013383027648
 40
0.5578736296759313
 40
0.7785335806373729
 40
1.0
 40
1.0
 40
1.0
 40
1.0
 10
0.2805938720723535
 20
-1.590963689985773
 30
0.0
 10
0.2807285073615892
 20
-1.587234813819179
 30
0.0
 10
0.2809957045152629
 20
-1.57983448732401
 30
0.0
 10
0.2870231323518104
 20
-1.570492514916753
 30
0.0
 10
0.2963220182810595
 20
-1.567271665972506
 30
0.0
 10
0.3021325671817624
 20
-1.567030302826163
 30
0.0
 10
0.3050431410491996
 20
-1.566909401121639
 30
0.0
  0
SPLINE
  5
DC
330
1F
100
AcDbEntity
  8
0
  6
Continuous
 62
     7
370
    25
100
AcDbSpline
210
0.0
220
0.0
230
1.0
 70
     8
 71
     3
 72
    10
 73
     6
 74
     0
 42
0.00000001
 43
0.00000001
 40
0.0
 40
0.0
 40
0.0
 40
0.0
 40
0.2802002682821455
 40
0.560107153175435
 40
1.0
 40
1.0
 40
1.0
 40
1.0
 10
0.2996319135050523
 20
-1.764083473387268
 30
0.0
 10
0.2964018829927619
 20
-1.763688163803833
 30
0.0
 10
0.2899452039681473
 20
-1.762897958545435
 30
0.0
 10
0.2815948761260748
 20
-1.753857538456796
 30
0.0
 10
0.2809735714263217
 20
-1.745519691814248
 30
0.0
 10
0.2805938720723531
 20
-1.740424164635842
 30
0.0
  0
SPLINE
  5
DD
330
1F
100
AcDbEntity
  8
0
  6
Continuous
 62
     7
370
    25
100
AcDbSpline
210
0.0
220
0.0
230
1.0
 70
     8
 71
     3
 72
    11
 73
     7
 74
     0
 42
0.00000001
 43
0.00000001
 40
0.0
 40
0.0
 40
0.0
 40
0.0
 40
0.2809039012234901
 40
0.5602068665447159
 40
0.7800133066502821
 40
1.0
 40
1.0
 40
1.0
 40
1.0
 10
0.3185119628926636
 20
-1.740266172590762
 30
0.0
 10
0.3183631131885528
 20
-1.743473290539811
 30
0.0
 10
0.3180662621090097
 20
-1.749869248335523
 30
0.0
 10
0.3139699029471136
 20
-1.758081768411148
 30
0.0
 10
0.3071987124601441
 20
-1.763280984726152
 30
0.0
 10
0.3021548689119092
 20
-1.763815904086363
 30
0.0
 10
0.2996319135050524
 20
-1.764083473387269
 30
0.0
  0
SPLINE
  5
E0
330
1F
100
AcDbEntity
  8
0
  6
Continuous
 62
     7
370
    25
100
AcDbSpline
210
0.0
220
0.0
230
1.0
 70
     8
 71
     3
 72
    11
 73
     7
 74
     0
 42
0.00000001
 43
0.00000001
 40
0.0
 40
0.0
 40
0.0
 40
0.0
 40
0.1875023131228799
 40
0.3743573979452741
 40
0.5611846511062424
 40
1.0
 40
1.0
 40
1.0
 40
1.0
 10
0.4272104899108918
 20
-1.625366457802958
 30
0.0
 10
0.4268246431924441
 20
-1.632114303752839
 30
0.0
 10
0.4260542816373356
 20
-1.645586703156667
 30
0.0
 10
0.4169413652854675
 20
-1.664228026214197
 30
0.0
 10
0.3935864446676063
 20
-1.68324794578935
 30
0.0
 10
0.3704474631263058
 20
-1.684700571461281
 30
0.0
 10
0.354218165081791
 20
-1.685719419025285
 30
0.0
  0
SPLINE
  5
E1
330
1F
100
AcDbEntity
  8
0
  6
Continuous
 62
     7
370
    25
100
AcDbSpline
210
0.0
220
0.0
230
1.0
 70
     8
 71
     3
 72
    11
 73
     7
 74
     0
 42
0.00000001
 43
0.00000001
 40
0.0
 40
0.0
 40
0.0
 40
0.0
 40
0.2808190002357498
 40
0.5601054641905718
 40
0.77990406639194
 40
1.0
 40
1.0
 40
1.0
 40
1.0
 10
0.667358398439541
 20
-1.58594744255434
 30
0.0
 10
0.6674987715257387
 20
-1.582720144658685
 30
0.0
 10
0.6677787516287179
 20
-1.576283161461643
 30
0.0
 10
0.671606949827218
 20
-1.567848855197869
 30
0.0
 10
0.6784750747516584
 20
-1.562581821527645
 30
0.0
 10
0.6835705127514343
 20
-1.562096486976836
 30
0.0
 10
0.6861199537933402
 20
-1.56185365567893
 30
0.0
  0
SPLINE
  5
E3
330
1F
100
AcDbEntity
  8
0
  6
Continuous
 62
     7
370
    25
100
AcDbSpline
210
0.0
220
0.0
230
1.0
 70
     8
 71
     3
 72
    11
 73
     7
 74
     0
 42
0.00000001
 43
0.00000001
 40
0.0
 40
0.0
 40
0.0
 40
0.0
 40
0.2810429463727586
 40
0.5580721586404769
 40
0.7785906761558404
 40
1.0
 40
1.0
 40
1.0
 40
1.0
 10
0.690583229066979
 20
-1.761555600665911
 30
0.0
 10
0.6869128258431796
 20
-1.761423477890599
 30
0.0
 10
0.6796244385108398
 20
-1.76116111926045
 30
0.0
 10
0.6707003256560888
 20
-1.754863614022466
 30
0.0
 10
0.6676874106400998
 20
-1.745740652010884
 30
0.0
 10
0.6674682164516815
 20
-1.740040932173014
 30
0.0
 10
0.6673583984395397
 20
-1.737185327711612
 30
0.0
  0
SPLINE
  5
E5
330
1F
100
AcDbEntity
  8
0
  6
Continuous
 62
     7
370
    25
100
AcDbSpline
210
0.0
220
0.0
230
1.0
 70
     8
 71
     3
 72
    10
 73
     6
 74
     0
 42
0.00000001
 43
0.00000001
 40
0.0
 40
0.0
 40
0.0
 40
0.0
 40
0.2803873437160213
 40
0.5601913074252348
 40
1.0
 40
1.0
 40
1.0
 40
1.0
 10
0.8054039478322398
 20
-1.745242922010921
 30
0.0
 10
0.8050769720797741
 20
-1.747974333986366
 30
0.0
 10
0.8044237008877064
 20
-1.753431474902081
 30
0.0
 10
0.7969436050300948
 20
-1.760679947333951
 30
0.0
 10
0.7898635780304456
 20
-1.761223435014953
 30
0.0
 10
0.7855364481628451
 20
-1.761555600665911
 30
0.0
  0
SPLINE
  5
E6
330
1F
100
AcDbEntity
  8
0
  6
Continuous
 62
     7
370
    25
100
AcDbSpline
210
0.0
220
0.0
230
1.0
 70
     8
 71
     3
 72
    11
 73
     7
 74
     0
 42
0.00000001
 43
0.00000001
 40
0.0
 40
0.0
 40
0.0
 40
0.0
 40
0.2806898236514526
 40
0.559956733891782
 40
0.7799666375582416
 40
1.0
 40
1.0
 40
1.0
 40
1.0
 10
0.7855364481628455
 20
-1.728693255288306
 30
0.0
 10
0.7882647980157608
 20
-1.728839829383976
 30
0.0
 10
0.7937076667762958
 20
-1.729132234540734
 30
0.0
 10
0.8005745040380239
 20
-1.732912870769883
 30
0.0
 10
0.8047387815733917
 20
-1.738820057783479
 30
0.0
 10
0.8051822178660709
 20
-1.743101891180038
 30
0.0
 10
0.8054039478322398
 20
-1.745242922010921
 30
0.0
  0
SPLINE
  5
E9
330
1F
100
AcDbEntity
  8
0
  6
Continuous
 62
     7
370
    25
100
AcDbSpline
210
0.0
220
0.0
230
1.0
 70
     8
 71
     3
 72
    10
 73
     6
 74
     0
 42
0.00000001
 43
0.00000001
 40
0.0
 40
0.0
 40
0.0
 40
0.0
 40
0.2800831870059453
 40
0.5594980782960152
 40
1.0
 40
1.0
 40
1.0
 40
1.0
 10
0.6861199537933402
 20
-1.56185365567893
 30
0.0
 10
0.6893977635364246
 20
-1.562260509595674
 30
0.0
 10
0.6959455619668845
 20
-1.563073246650685
 30
0.0
 10
0.7044959083852874
 20
-1.57222668196463
 30
0.0
 10
0.7049801760713383
 20
-1.58073895942124
 30
0.0
 10
0.7052764892598546
 20
-1.585947442554339
 30
0.0
  0
SPLINE
  5
EA
330
1F
100
AcDbEntity
  8
0
  6
Continuous
 62
     7
370
    25
100
AcDbSpline
210
0.0
220
0.0
230
1.0
 70
     8
 71
     3
 72
    11
 73
     7
 74
     0
 42
0.00000001
 43
0.00000001
 40
0.0
 40
0.0
 40
0.0
 40
0.0
 40
0.2809303403176452
 40
0.5602303161222435
 40
0.7798067065041075
 40
0.9999999999999999
 40
0.9999999999999999
 40
0.9999999999999999
 40
0.9999999999999999
 10
1.066762288413499
 20
-1.585868446531797
 30
0.0
 10
1.066897235561933
 20
-1.582640468088725
 30
0.0
 10
1.067166346700095
 20
-1.576203244606373
 30
0.0
 10
1.070956128545764
 20
-1.567739057270995
 30
0.0
 10
1.077873512712031
 20
-1.562519809070838
 30
0.0
 10
1.082971349689376
 20
-1.562075914372777
 30
0.0
 10
1.085523843767297
 20
-1.561853655678932
 30
0.0
  0
SPLINE
  5
EC
330
1F
100
AcDbEntity
  8
0
  6
Continuous
 62
     7
370
    25
100
AcDbSpline
210
0.0
220
0.0
230
1.0
 70
     8
 71
     3
 72
    10
 73
     6
 74
     0
 42
0.00000001
 43
0.00000001
 40
0.0
 40
0.0
 40
0.0
 40
0.0
 40
0.2797695150904299
 40
0.55957296943388
 40
1.0
 40
1.0
 40
1.0
 40
1.0
 10
1.085523843767295
 20
-1.76408347338727
 30
0.0
 10
1.082268846744648
 20
-1.763665872238995
 30
0.0
 10
1.075758457830857
 20
-1.762830619282634
 30
0.0
 10
1.067588490189062
 20
-1.753478699480002
 30
0.0
 10
1.0670758017366
 20
-1.745083763081547
 30
0.0
 10
1.066762288413497
 20
-1.739950188500588
 30
0.0
  0
SPLINE
  5
ED
330
1F
100
AcDbEntity
  8
0
  6
Continuous
 62
     7
370
    25
100
AcDbSpline
210
0.0
220
0.0
230
1.0
 70
     8
 71
     3
 72
    11
 73
     7
 74
     0
 42
0.00000001
 43
0.00000001
 40
0.0
 40
0.0
 40
0.0
 40
0.0
 40
0.280966607297628
 40
0.5601180988464759
 40
0.7799673908162525
 40
1.0
 40
1.0
 40
1.0
 40
1.0
 10
1.10468037923381
 20
-1.740305670602024
 30
0.0
 10
1.104543498390247
 20
-1.743541207518956
 30
0.0
 10
1.104270620988186
 20
-1.749991378961358
 30
0.0
 10
1.100113452712359
 20
-1.758293672284911
 30
0.0
 10
1.093161669236679
 20
-1.763384191233993
 30
0.0
 10
1.088070492825913
 20
-1.763850314585136
 30
0.0
 10
1.085523843767295
 20
-1.76408347338727
 30
0.0
  0
SPLINE
  5
F1
330
1F
100
AcDbEntity
  8
0
  6
Continuous
 62
     7
370
    25
100
AcDbSpline
210
0.0
220
0.0
230
1.0
 70
     8
 71
     3
 72
    10
 73
     6
 74
     0
 42
0.00000001
 43
0.00000001
 40
0.0
 40
0.0
 40
0.0
 40
0.0
 40
0.279954101276135
 40
0.5595700765778279
 40
1.0
 40
1.0
 40
1.0
 40
1.0
 10
1.20938960711365
 20
-1.764083473387265
 30
0.0
 10
1.20616452514533
 20
-1.763679982661859
 30
0.0
 10
1.199718256432865
 20
-1.762873488543412
 30
0.0
 10
1.191464087698931
 20
-1.753744851029768
 30
0.0
 10
1.19094534854243
 20
-1.745406179456835
 30
0.0
 10
1.190628051759852
 20
-1.740305670602027
 30
0.0
  0
SPLINE
  5
F2
330
1F
100
AcDbEntity
  8
0
  6
Continuous
 62
     7
370
    25
100
AcDbSpline
210
0.0
220
0.0
230
1.0
 70
     8
 71
     3
 72
    11
 73
     7
 74
     0
 42
0.00000001
 43
0.00000001
 40
0.0
 40
0.0
 40
0.0
 40
0.0
 40
0.2809971089760478
 40
0.5603180296206917
 40
0.7800934948880135
 40
0.9999999999999999
 40
0.9999999999999999
 40
0.9999999999999999
 40
0.9999999999999999
 10
1.228546142580165
 20
-1.739950188500589
 30
0.0
 10
1.228404538804282
 20
-1.743209842130192
 30
0.0
 10
1.228122175939488
 20
-1.749709705084799
 30
0.0
 10
1.224062361080884
 20
-1.758140750642897
 30
0.0
 10
1.217082655628742
 20
-1.763331198385351
 30
0.0
 10
1.211954466075673
 20
-1.763832665235363
 30
0.0
 10
1.20938960711365
 20
-1.764083473387265
 30
0.0
  0
SPLINE
  5
F4
330
1F
100
AcDbEntity
  8
0
  6
Continuous
 62
     7
370
    25
100
AcDbSpline
210
0.0
220
0.0
230
1.0
 70
     8
 71
     3
 72
    10
 73
     6
 74
     0
 42
0.00000001
 43
0.00000001
 40
0.0
 40
0.0
 40
0.0
 40
0.0
 40
0.2801147673154518
 40
0.5595640565899561
 40
1.0
 40
1.0
 40
1.0
 40
1.0
 10
1.209389607113651
 20
-1.561853655678927
 30
0.0
 10
1.212659874315525
 20
-1.562258678219481
 30
0.0
 10
1.219192639435876
 20
-1.563067761074963
 30
0.0
 10
1.227742107572556
 20
-1.572179949336989
 30
0.0
 10
1.228240946118697
 20
-1.580672552239706
 30
0.0
 10
1.228546142580166
 20
-1.585868446531796
 30
0.0
  0
SPLINE
  5
F5
330
1F
100
AcDbEntity
  8
0
  6
Continuous
 62
     7
370
    25
100
AcDbSpline
210
0.0
220
0.0
230
1.0
 70
     8
 71
     3
 72
    11
 73
     7
 74
     0
 42
0.00000001
 43
0.00000001
 40
0.0
 40
0.0
 40
0.0
 40
0.0
 40
0.2808415803562637
 40
0.5602170163303937
 40
0.7799243829877316
 40
1.0
 40
1.0
 40
1.0
 40
1.0
 10
1.190628051759852
 20
-1.586105434599419
 30
0.0
 10
1.190765912684473
 20
-1.582864672026528
 30
0.0
 10
1.1910409148254
 20
-1.576400065407676
 30
0.0
 10
1.194852648533983
 20
-1.567927171056926
 30
0.0
 10
1.201710080001392
 20
-1.56258194319534
 30
0.0
 10
1.206828336159774
 20
-1.562096553663998
 30
0.0
 10
1.209389607113651
 20
-1.561853655678927
 30
0.0
  0
SPLINE
  5
F9
330
1F
100
AcDbEntity
  8
0
  6
Continuous
 62
     7
370
    25
100
AcDbSpline
210
0.0
220
0.0
230
1.0
 70
     8
 71
     3
 72
    10
 73
     6
 74
     0
 42
0.00000001
 43
0.00000001
 40
0.0
 40
0.0
 40
0.0
 40
0.0
 40
0.2799675813051949
 40
0.5595784047874414
 40
1.0
 40
1.0
 40
1.0
 40
1.0
 10
1.085523843767297
 20
-1.561853655678932
 30
0.0
 10
1.088811452654354
 20
-1.562272225118969
 30
0.0
 10
1.095382481085605
 20
-1.563108830623281
 30
0.0
 10
1.103879814701404
 20
-1.572360685207221
 30
0.0
 10
1.104376544782633
 20
-1.580888955203803
 30
0.0
 10
1.104680379233812
 20
-1.58610543459942
 30
0.0
  0
SPLINE
  5
FA
330
1F
100
AcDbEntity
  8
0
  6
Continuous
 62
     7
370
    25
100
AcDbSpline
210
0.0
220
0.0
230
1.0
 70
     8
 71
     3
 72
    10
 73
     6
 74
     0
 42
0.00000001
 43
0.00000001
 40
0.0
 40
0.0
 40
0.0
 40
0.0
 40
0.2807305895735838
 40
0.561765764635728
 40
1.0
 40
1.0
 40
1.0
 40
1.0
 10
1.473275820416274
 20
-1.575440971556208
 30
0.0
 10
1.474428506086853
 20
-1.573305806680929
 30
0.0
 10
1.476735128062397
 20
-1.569033160331254
 30
0.0
 10
1.483695962556095
 20
-1.563444198361136
 30
0.0
 10
1.48991013843749
 20
-1.562455839748661
 30
0.0
 10
1.493696292243458
 20
-1.561853655678929
 30
0.0
  0
SPLINE
  5
FB
330
1F
100
AcDbEntity
  8
0
  6
Continuous
 62
     7
370
    25
100
AcDbSpline
210
0.0
220
0.0
230
1.0
 70
     8
 71
     3
 72
     9
 73
     5
 74
     0
 42
0.00000001
 43
0.00000001
 40
0.0
 40
0.0
 40
0.0
 40
0.0
 40
0.560257324106265
 40
0.9999999999999999
 40
0.9999999999999999
 40
0.9999999999999999
 40
0.9999999999999999
 10
1.471221923830169
 20
-1.590529211861791
 30
0.0
 10
1.47125604646393
 20
-1.58766017171374
 30
0.0
 10
1.471316951752077
 20
-1.582539238841284
 30
0.0
 10
1.472677520343253
 20
-1.577609005540621
 30
0.0
 10
1.473275820416274
 20
-1.575440971556208
 30
0.0
  0
SPLINE
  5
FD
330
1F
100
AcDbEntity
  8
0
  6
Continuous
 62
     7
370
    25
100
AcDbSpline
210
0.0
220
0.0
230
1.0
 70
     8
 71
     3
 72
    10
 73
     6
 74
     0
 42
0.00000001
 43
0.00000001
 40
0.0
 40
0.0
 40
0.0
 40
0.0
 40
0.2797244341322714
 40
0.5595148499086072
 40
0.9999999999999999
 40
0.9999999999999999
 40
0.9999999999999999
 40
0.9999999999999999
 10
1.488917032879648
 20
-1.764083473387267
 30
0.0
 10
1.485864246904978
 20
-1.763677596306391
 30
0.0
 10
1.479757954861813
 20
-1.762865746405999
 30
0.0
 10
1.472085372569622
 20
-1.754104917341719
 30
0.0
 10
1.471549585115019
 20
-1.746228465752217
 30
0.0
 10
1.471221923830169
 20
-1.741411614917621
 30
0.0
  0
SPLINE
  5
FE
330
1F
100
AcDbEntity
  8
0
  6
Continuous
 62
     7
370
    25
100
AcDbSpline
210
0.0
220
0.0
230
1.0
 70
     8
 71
     3
 72
    11
 73
     7
 74
     0
 42
0.00000001
 43
0.00000001
 40
0.0
 40
0.0
 40
0.0
 40
0.0
 40
0.2809574571043873
 40
0.5602289954891932
 40
0.7800675876561451
 40
1.0
 40
1.0
 40
1.0
 40
1.0
 10
1.506612141929127
 20
-1.741530108951433
 30
0.0
 10
1.506484536171696
 20
-1.744559707425695
 30
0.0
 10
1.506230090370395
 20
-1.750600724907357
 30
0.0
 10
1.502458360660488
 20
-1.758406781117756
 30
0.0
 10
1.496071811175151
 20
-1.763355754589231
 30
0.0
 10
1.491302298152061
 20
-1.763840865956911
 30
0.0
 10
1.488917032879648
 20
-1.764083473387267
 30
0.0
  0
SPLINE
  5
101
330
1F
100
AcDbEntity
  8
0
  6
Continuous
 62
     7
370
    25
100
AcDbSpline
210
0.0
220
0.0
230
1.0
 70
     8
 71
     3
 72
    10
 73
     6
 74
     0
 42
0.00000001
 43
0.00000001
 40
0.0
 40
0.0
 40
0.0
 40
0.0
 40
0.2794127790595994
 40
0.5587557974731944
 40
1.0
 40
1.0
 40
1.0
 40
1.0
 10
1.612032334011851
 20
-1.764083473387264
 30
0.0
 10
1.60821987062727
 20
-1.763726109964225
 30
0.0
 10
1.600595895711167
 20
-1.763011472340635
 30
0.0
 10
1.5899714616917
 20
-1.753916479300585
 30
0.0
 10
1.584766544835657
 20
-1.745817791354685
 30
0.0
 10
1.581579367321788
 20
-1.740858642759823
 30
0.0
  0
SPLINE
  5
102
330
1F
100
AcDbEntity
  8
0
  6
Continuous
 62
     7
370
    25
100
AcDbSpline
210
0.0
220
0.0
230
1.0
 70
     8
 71
     3
 72
    11
 73
     7
 74
     0
 42
0.00000001
 43
0.00000001
 40
0.0
 40
0.0
 40
0.0
 40
0.0
 40
0.280983006660789
 40
0.5602305863562002
 40
0.779611231997867
 40
1.0
 40
1.0
 40
1.0
 40
1.0
 10
1.633005777996841
 20
-1.738330770038463
 30
0.0
 10
1.632860140471017
 20
-1.741869759264317
 30
0.0
 10
1.632569764916078
 20
-1.748925879962399
 30
0.0
 10
1.628414946697599
 20
-1.758343354092178
 30
0.0
 10
1.620413472759999
 20
-1.763530433256175
 30
0.0
 10
1.614830313184894
 20
-1.763898845162491
 30
0.0
 10
1.612032334011851
 20
-1.764083473387264
 30
0.0
  0
SPLINE
  5
104
330
1F
100
AcDbEntity
  8
0
  6
Continuous
 62
     7
370
    25
100
AcDbSpline
210
0.0
220
0.0
230
1.0
 70
     8
 71
     3
 72
    10
 73
     6
 74
     0
 42
0.00000001
 43
0.00000001
 40
0.0
 40
0.0
 40
0.0
 40
0.0
 40
0.2801735021771567
 40
0.559391191140209
 40
0.9999999999999999
 40
0.9999999999999999
 40
0.9999999999999999
 40
0.9999999999999999
 10
1.615113178891001
 20
-1.561853655678925
 30
0.0
 10
1.618205793862748
 20
-1.562209687650441
 30
0.0
 10
1.624380473335789
 20
-1.562920536988736
 30
0.0
 10
1.632284569188568
 20
-1.571665845532282
 30
0.0
 10
1.632731940280837
 20
-1.579642791916039
 30
0.0
 10
1.633005777996841
 20
-1.584525514148572
 30
0.0
  0
SPLINE
  5
105
330
1F
100
AcDbEntity
  8
0
  6
Continuous
 62
     7
370
    25
100
AcDbSpline
210
0.0
220
0.0
230
1.0
 70
     8
 71
     3
 72
    11
 73
     7
 74
     0
 42
0.00000001
 43
0.00000001
 40
0.0
 40
0.0
 40
0.0
 40
0.0
 40
0.2809736214790462
 40
0.5603986596243343
 40
0.7799137747365408
 40
1.0
 40
1.0
 40
1.0
 40
1.0
 10
1.597615559897883
 20
-1.584525514148569
 30
0.0
 10
1.597743532572441
 20
-1.581496647854171
 30
0.0
 10
1.59799877260143
 20
-1.575455608831978
 30
0.0
 10
1.601471912858402
 20
-1.567473356377532
 30
0.0
 10
1.607942284558337
 20
-1.562539382015829
 30
0.0
 10
1.61272081143155
 20
-1.562082429008777
 30
0.0
 10
1.615113178891001
 20
-1.561853655678925
 30
0.0
  0
SPLINE
  5
108
330
1F
100
AcDbEntity
  8
0
  6
Continuous
 62
     7
370
    25
100
AcDbSpline
210
0.0
220
0.0
230
1.0
 70
     8
 71
     3
 72
    10
 73
     6
 74
     0
 42
0.00000001
 43
0.00000001
 40
0.0
 40
0.0
 40
0.0
 40
0.0
 40
0.2784986954190621
 40
0.558024834243636
 40
1.0
 40
1.0
 40
1.0
 40
1.0
 10
1.493696292243458
 20
-1.561853655678929
 30
0.0
 10
1.497299157430907
 20
-1.562291116704256
 30
0.0
 10
1.504518179573912
 20
-1.563167652645578
 30
0.0
 10
1.513525565859589
 20
-1.572932714807014
 30
0.0
 10
1.51800712780987
 20
-1.580783034500943
 30
0.0
 10
1.520752429964207
 20
-1.585591960452893
 30
0.0
  0
SPLINE
  5
109
330
1F
100
AcDbEntity
  8
0
  6
Continuous
 62
     7
370
    25
100
AcDbSpline
210
0.0
220
0.0
230
1.0
 70
     8
 71
     3
 72
    11
 73
     7
 74
     0
 42
0.00000001
 43
0.00000001
 40
0.0
 40
0.0
 40
0.0
 40
0.0
 40
0.2808190002358388
 40
0.5601054641906263
 40
0.7799040663919227
 40
1.0
 40
1.0
 40
1.0
 40
1.0
 10
1.878209431968193
 20
-1.585947442554333
 30
0.0
 10
1.878349805054392
 20
-1.582720144658677
 30
0.0
 10
1.878629785157375
 20
-1.576283161461637
 30
0.0
 10
1.88245798335587
 20
-1.567848855197863
 30
0.0
 10
1.889326108280308
 20
-1.56258182152764
 30
0.0
 10
1.894421546280084
 20
-1.562096486976834
 30
0.0
 10
1.896970987321989
 20
-1.561853655678929
 30
0.0
  0
SPLINE
  5
10B
330
1F
100
AcDbEntity
  8
0
  6
Continuous
 62
     7
370
    25
100
AcDbSpline
210
0.0
220
0.0
230
1.0
 70
     8
 71
     3
 72
    11
 73
     7
 74
     0
 42
0.00000001
 43
0.00000001
 40
0.0
 40
0.0
 40
0.0
 40
0.0
 40
0.2810429463727205
 40
0.5580721586404964
 40
0.7785906761558071
 40
1.0
 40
1.0
 40
1.0
 40
1.0
 10
1.90143426259563
 20
-1.76155560066591
 30
0.0
 10
1.89776385937183
 20
-1.761423477890597
 30
0.0
 10
1.890475472039489
 20
-1.761161119260446
 30
0.0
 10
1.881551359184739
 20
-1.754863614022461
 30
0.0
 10
1.878538444168746
 20
-1.745740652010877
 30
0.0
 10
1.878319249980333
 20
-1.740040932173005
 30
0.0
 10
1.878209431968193
 20
-1.737185327711602
 30
0.0
  0
SPLINE
  5
10D
330
1F
100
AcDbEntity
  8
0
  6
Continuous
 62
     7
370
    25
100
AcDbSpline
210
0.0
220
0.0
230
1.0
 70
     8
 71
     3
 72
    10
 73
     6
 74
     0
 42
0.00000001
 43
0.00000001
 40
0.0
 40
0.0
 40
0.0
 40
0.0
 40
0.2803873437160276
 40
0.5601913074251781
 40
1.0
 40
1.0
 40
1.0
 40
1.0
 10
2.016254981360889
 20
-1.745242922010918
 30
0.0
 10
2.015928005608423
 20
-1.747974333986363
 30
0.0
 10
2.015274734416354
 20
-1.753431474902077
 30
0.0
 10
2.007794638558745
 20
-1.760679947333948
 30
0.0
 10
2.000714611559097
 20
-1.761223435014951
 30
0.0
 10
1.996387481691496
 20
-1.761555600665909
 30
0.0
  0
SPLINE
  5
10E
330
1F
100
AcDbEntity
  8
0
  6
Continuous
 62
     7
370
    25
100
AcDbSpline
210
0.0
220
0.0
230
1.0
 70
     8
 71
     3
 72
    11
 73
     7
 74
     0
 42
0.00000001
 43
0.00000001
 40
0.0
 40
0.0
 40
0.0
 40
0.0
 40
0.2806898236514807
 40
0.5599567338917282
 40
0.7799666375581986
 40
1.0
 40
1.0
 40
1.0
 40
1.0
 10
1.996387481691501
 20
-1.728693255288305
 30
0.0
 10
1.999115831544416
 20
-1.728839829383975
 30
0.0
 10
2.004558700304951
 20
-1.729132234540731
 30
0.0
 10
2.01142553756668
 20
-1.732912870769877
 30
0.0
 10
2.015589815102044
 20
-1.738820057783476
 30
0.0
 10
2.016033251394721
 20
-1.743101891180035
 30
0.0
 10
2.016254981360889
 20
-1.745242922010918
 30
0.0
  0
SPLINE
  5
111
330
1F
100
AcDbEntity
  8
0
  6
Continuous
 62
     7
370
    25
100
AcDbSpline
210
0.0
220
0.0
230
1.0
 70
     8
 71
     3
 72
    10
 73
     6
 74
     0
 42
0.00000001
 43
0.00000001
 40
0.0
 40
0.0
 40
0.0
 40
0.0
 40
0.2800831870058796
 40
0.5594980782960979
 40
0.9999999999999999
 40
0.9999999999999999
 40
0.9999999999999999
 40
0.9999999999999999
 10
1.896970987321989
 20
-1.561853655678929
 30
0.0
 10
1.900248797065073
 20
-1.562260509595672
 30
0.0
 10
1.906796595495535
 20
-1.563073246650682
 30
0.0
 10
1.915346941913944
 20
-1.572226681964623
 30
0.0
 10
1.915831209599991
 20
-1.580738959421236
 30
0.0
 10
1.916127522788505
 20
-1.585947442554336
 30
0.0
  0
SPLINE
  5
113
330
1F
100
AcDbEntity
  8
0
  6
Continuous
 62
     7
370
    25
100
AcDbSpline
210
0.0
220
0.0
230
1.0
 70
     8
 71
     3
 72
    11
 73
     7
 74
     0
 42
0.00000001
 43
0.00000001
 40
0.0
 40
0.0
 40
0.0
 40
0.0
 40
0.2810452728831732
 40
0.5600905589706506
 40
0.7798521895047865
 40
1.0
 40
1.0
 40
1.0
 40
1.0
 10
2.17215363184816
 20
-1.566909401121632
 30
0.0
 10
2.174701600260673
 20
-1.567016123561459
 30
0.0
 10
2.179779405120239
 20
-1.567228808978168
 30
0.0
 10
2.186410151213384
 20
-1.570398127862989
 30
0.0
 10
2.190302112452419
 20
-1.575983006064811
 30
0.0
 10
2.1906580607792
 20
-1.579991589978039
 30
0.0
 10
2.190836191179418
 20
-1.581997641427215
 30
0.0
  0
SPLINE
  5
115
330
1F
100
AcDbEntity
  8
0
  6
Continuous
 62
     7
370
    25
100
AcDbSpline
210
0.0
220
0.0
230
1.0
 70
     8
 71
     3
 72
    11
 73
     7
 74
     0
 42
0.00000001
 43
0.00000001
 40
0.0
 40
0.0
 40
0.0
 40
0.0
 40
0.2812281265615642
 40
0.5588290374629972
 40
0.778754391520216
 40
1.0
 40
1.0
 40
1.0
 40
1.0
 10
2.045049031577566
 20
-1.591082184019581
 30
0.0
 10
2.045186333063451
 20
-1.587455650104171
 30
0.0
 10
2.045459165152252
 20
-1.580249356473251
 30
0.0
 10
2.050767552122436
 20
-1.57083039581452
 30
0.0
 10
2.059768128561403
 20
-1.567304180500324
 30
0.0
 10
2.065432966765668
 20
-1.567041256524526
 30
0.0
 10
2.068273862205011
 20
-1.566909401121634
 30
0.0
  0
SPLINE
  5
117
330
1F
100
AcDbEntity
  8
0
  6
Continuous
 62
     7
370
    25
100
AcDbSpline
210
0.0
220
0.0
230
1.0
 70
     8
 71
     3
 72
    11
 73
     7
 74
     0
 42
0.00000001
 43
0.00000001
 40
0.0
 40
0.0
 40
0.0
 40
0.0
 40
0.2810140540549588
 40
0.5581647592409577
 40
0.7786247943668909
 40
1.0
 40
1.0
 40
1.0
 40
1.0
 10
2.068273862205007
 20
-1.761555600665909
 30
0.0
 10
2.064623461312757
 20
-1.761420022342017
 30
0.0
 10
2.057372844819543
 20
-1.761150729609424
 30
0.0
 10
2.048424950306508
 20
-1.754981023950112
 30
0.0
 10
2.045376139814066
 20
-1.745900045068468
 30
0.0
 10
2.045158218116342
 20
-1.740225811202892
 30
0.0
 10
2.045049031577571
 20
-1.737382817767954
 30
0.0
  0
SPLINE
  5
119
330
1F
100
AcDbEntity
  8
0
  6
Continuous
 62
     7
370
    25
100
AcDbSpline
210
0.0
220
0.0
230
1.0
 70
     8
 71
     3
 72
    10
 73
     6
 74
     0
 42
0.00000001
 43
0.00000001
 40
0.0
 40
0.0
 40
0.0
 40
0.0
 40
0.2800416316696239
 40
0.5598861357862509
 40
0.9999999999999999
 40
0.9999999999999999
 40
0.9999999999999999
 40
0.9999999999999999
 10
2.194035530092378
 20
-1.746506858371596
 30
0.0
 10
2.193702003912254
 20
-1.749059505236739
 30
0.0
 10
2.193035186328526
 20
-1.754163002101941
 30
0.0
 10
2.185904201063094
 20
-1.760808849887504
 30
0.0
 10
2.179282408809277
 20
-1.761272294711788
 30
0.0
 10
2.175234476727307
 20
-1.761555600665907
 30
0.0
  0
SPLINE
  5
11A
330
1F
100
AcDbEntity
  8
0
  6
Continuous
 62
     7
370
    25
100
AcDbSpline
210
0.0
220
0.0
230
1.0
 70
     8
 71
     3
 72
    11
 73
     7
 74
     0
 42
0.00000001
 43
0.00000001
 40
0.0
 40
0.0
 40
0.0
 40
0.0
 40
0.280832170781614
 40
0.5599155513094667
 40
0.7796992009794036
 40
1.0
 40
1.0
 40
1.0
 40
1.0
 10
2.17523447672731
 20
-1.731221128009658
 30
0.0
 10
2.177798899864832
 20
-1.731347786836022
 30
0.0
 10
2.182911777035706
 20
-1.731600315762441
 30
0.0
 10
2.189539726620013
 20
-1.734852531385995
 30
0.0
 10
2.193504710140835
 20
-1.740440786854511
 30
0.0
 10
2.193858451546383
 20
-1.744483251080606
 30
0.0
 10
2.194035530092378
 20
-1.746506858371596
 30
0.0
  0
SPLINE
  5
11E
330
1F
100
AcDbEntity
  8
0
  6
Continuous
 62
     7
370
    25
100
AcDbSpline
210
0.0
220
0.0
230
1.0
 70
     8
 71
     3
 72
    10
 73
     6
 74
     0
 42
0.00000001
 43
0.00000001
 40
0.0
 40
0.0
 40
0.0
 40
0.0
 40
0.2807738770860814
 40
0.5602830252809256
 40
1.0
 40
1.0
 40
1.0
 40
1.0
 10
2.183094580970269
 20
-1.660322197777923
 30
0.0
 10
2.182820085033548
 20
-1.662836959481508
 30
0.0
 10
2.182272329610395
 20
-1.667855155297185
 30
0.0
 10
2.175674959891726
 20
-1.674845615658279
 30
0.0
 10
2.169102019941508
 20
-1.675318697599661
 30
0.0
 10
2.165083487830617
 20
-1.675607928139864
 30
0.0
  0
SPLINE
  5
11F
330
1F
100
AcDbEntity
  8
0
  6
Continuous
 62
     7
370
    25
100
AcDbSpline
210
0.0
220
0.0
230
1.0
 70
     8
 71
     3
 72
    11
 73
     7
 74
     0
 42
0.00000001
 43
0.00000001
 40
0.0
 40
0.0
 40
0.0
 40
0.0
 40
0.2808878320040507
 40
0.5597984905965466
 40
0.7797707238138357
 40
1.0
 40
1.0
 40
1.0
 40
1.0
 10
2.165083487830622
 20
-1.645273455483614
 30
0.0
 10
2.167577676729196
 20
-1.645382113766424
 30
0.0
 10
2.172548497895506
 20
-1.645598665484859
 30
0.0
 10
2.178957032593261
 20
-1.648895823615818
 30
0.0
 10
2.182617661142122
 20
-1.654437776891171
 30
0.0
 10
2.182935545821026
 20
-1.658359960733648
 30
0.0
 10
2.183094580970269
 20
-1.660322197777923
 30
0.0
  0
SPLINE
  5
123
330
1F
100
AcDbEntity
  8
0
  6
Continuous
 62
     7
370
    25
100
AcDbSpline
210
0.0
220
0.0
230
1.0
 70
     8
 71
     3
 72
    10
 73
     6
 74
     0
 42
0.00000001
 43
0.00000001
 40
0.0
 40
0.0
 40
0.0
 40
0.0
 40
0.280347784660498
 40
0.5598415783642945
 40
1.0
 40
1.0
 40
1.0
 40
1.0
 10
2.190836191179418
 20
-1.581997641427215
 30
0.0
 10
2.19055374488672
 20
-1.584574533986692
 30
0.0
 10
2.189989712684722
 20
-1.589720469416571
 30
0.0
 10
2.182921343816979
 20
-1.596556151026843
 30
0.0
 10
2.176240074025635
 20
-1.596982876895313
 30
0.0
 10
2.172153631848154
 20
-1.597243873777881
 30
0.0
  0
SPLINE
  5
125
330
1F
100
AcDbEntity
  8
0
  6
Continuous
 62
     7
370
    25
100
AcDbSpline
210
0.0
220
0.0
230
1.0
 70
     8
 71
     3
 72
    10
 73
     6
 74
     0
 42
0.00000001
 43
0.00000001
 40
0.0
 40
0.0
 40
0.0
 40
0.0
 40
0.282243064445636
 40
0.5591280292056794
 40
1.0
 40
1.0
 40
1.0
 40
1.0
 10
1.703509728115853
 20
-1.761555600665905
 30
0.0
 10
1.699360732534293
 20
-1.761488075964262
 30
0.0
 10
1.691141505864339
 20
-1.761354308449278
 30
0.0
 10
1.678112685819402
 20
-1.751827368252129
 30
0.0
 10
1.678357260480454
 20
-1.740652501451114
 30
0.0
 10
1.678507486981214
 20
-1.733788498742283
 30
0.0
  0
SPLINE
  5
127
330
1F
100
AcDbEntity
  8
0
  6
Continuous
 62
     7
370
    25
100
AcDbSpline
210
0.0
220
0.0
230
1.0
 70
     8
 71
     3
 72
     9
 73
     5
 74
     0
 42
0.00000001
 43
0.00000001
 40
0.0
 40
0.0
 40
0.0
 40
0.0
 40
0.5577109770219817
 40
1.0
 40
1.0
 40
1.0
 40
1.0
 10
1.81619755427247
 20
-1.743189025424823
 30
0.0
 10
1.805650540834165
 20
-1.749644269860555
 30
0.0
 10
1.786739287742782
 20
-1.761218803448187
 30
0.0
 10
1.764688819046701
 20
-1.761452319208449
 30
0.0
 10
1.754936138790903
 20
-1.761555600665905
 30
0.0
  0
SPLINE
  5
128
330
1F
100
AcDbEntity
  8
0
  6
Continuous
 62
     7
370
    25
100
AcDbSpline
210
0.0
220
0.0
230
1.0
 70
     8
 71
     3
 72
     9
 73
     5
 74
     0
 42
0.00000001
 43
0.00000001
 40
0.0
 40
0.0
 40
0.0
 40
0.0
 40
0.5608026885476057
 40
1.0
 40
1.0
 40
1.0
 40
1.0
 10
1.845347086590589
 20
-1.663758524758514
 30
0.0
 10
1.844615911814501
 20
-1.680484910773939
 30
0.0
 10
1.84331211140302
 20
-1.710310705758525
 30
0.0
 10
1.824472055967405
 20
-1.733155606457455
 30
0.0
 10
1.81619755427247
 20
-1.743189025424823
 30
0.0
  0
SPLINE
  5
129
330
1F
100
AcDbEntity
  8
0
  6
Continuous
 62
     7
370
    25
100
AcDbSpline
210
0.0
220
0.0
230
1.0
 70
     8
 71
     3
 72
    10
 73
     6
 74
     0
 42
0.00000001
 43
0.00000001
 40
0.0
 40
0.0
 40
0.0
 40
0.0
 40
0.2798525982074546
 40
0.5599373378463195
 40
1.0
 40
1.0
 40
1.0
 40
1.0
 10
1.814578135810357
 20
-1.58409103602459
 30
0.0
 10
1.820347124534485
 20
-1.590011459781848
 30
0.0
 10
1.831889887435185
 20
-1.601857218366171
 30
0.0
 10
1.843289169123696
 20
-1.62963643601824
 30
0.0
 10
1.84456652739091
 20
-1.650816163994795
 30
0.0
 10
1.845347086590589
 20
-1.663758524758514
 30
0.0
  0
SPLINE
  5
12A
330
1F
100
AcDbEntity
  8
0
  6
Continuous
 62
     7
370
    25
100
AcDbSpline
210
0.0
220
0.0
230
1.0
 70
     8
 71
     3
 72
     9
 73
     5
 74
     0
 42
0.00000001
 43
0.00000001
 40
0.0
 40
0.0
 40
0.0
 40
0.0
 40
0.5612128136757544
 40
1.0
 40
1.0
 40
1.0
 40
1.0
 10
1.753593206407688
 20
-1.566909401121636
 30
0.0
 10
1.76596116925524
 20
-1.567000630359045
 30
0.0
 10
1.787999088821877
 20
-1.567163187654932
 30
0.0
 10
1.806472319082138
 20
-1.578928547070527
 30
0.0
 10
1.814578135810357
 20
-1.58409103602459
 30
0.0
  0
SPLINE
  5
12C
330
1F
100
AcDbEntity
  8
0
  6
Continuous
 62
     7
370
    25
100
AcDbSpline
210
0.0
220
0.0
230
1.0
 70
     8
 71
     3
 72
    11
 73
     7
 74
     0
 42
0.00000001
 43
0.00000001
 40
0.0
 40
0.0
 40
0.0
 40
0.0
 40
0.2811222911889002
 40
0.5587535958694301
 40
0.7788951278407751
 40
1.0
 40
1.0
 40
1.0
 40
1.0
 10
1.678507486981211
 20
-1.591082184019582
 30
0.0
 10
1.678651050359049
 20
-1.58745763295145
 30
0.0
 10
1.678936394339646
 20
-1.580253540617945
 30
0.0
 10
1.684224496679667
 20
-1.570827081064459
 30
0.0
 10
1.693223722410274
 20
-1.567277448331448
 30
0.0
 10
1.698891994171626
 20
-1.567032261957247
 30
0.0
 10
1.701732317608657
 20
-1.566909401121633
 30
0.0
  0
SPLINE
  5
12D
330
1F
100
AcDbEntity
  8
0
  6
Continuous
 62
     7
370
    25
100
AcDbSpline
210
0.0
220
0.0
230
1.0
 70
     8
 71
     3
 72
    11
 73
     7
 74
     0
 42
0.00000001
 43
0.00000001
 40
0.0
 40
0.0
 40
0.0
 40
0.0
 40
0.2789874542325337
 40
0.5591392423439967
 40
0.7795689056362344
 40
1.0
 40
1.0
 40
1.0
 40
1.0
 10
1.438359578452564
 20
-1.745953886213803
 30
0.0
 10
1.437914098071275
 20
-1.74865854107434
 30
0.0
 10
1.437021278128681
 20
-1.754079138476051
 30
0.0
 10
1.43172449955406
 20
-1.759832818178007
 30
0.0
 10
1.425674903998927
 20
-1.763533422650131
 30
0.0
 10
1.421386666637853
 20
-1.763900122744775
 30
0.0
 10
1.419242540997324
 20
-1.764083473387267
 30
0.0
  0
SPLINE
  5
12E
330
1F
100
AcDbEntity
  8
0
  6
Continuous
 62
     7
370
    25
100
AcDbSpline
210
0.0
220
0.0
230
1.0
 70
     8
 71
     3
 72
     9
 73
     5
 74
     0
 42
0.00000001
 43
0.00000001
 40
0.0
 40
0.0
 40
0.0
 40
0.0
 40
0.5607166616022567
 40
1.0
 40
1.0
 40
1.0
 40
1.0
 10
1.432434876761891
 20
-1.724980442228817
 30
0.0
 10
1.43399745668309
 20
-1.728776692064617
 30
0.0
 10
1.436784211613349
 20
-1.735547045249686
 30
0.0
 10
1.437878761100019
 20
-1.742777616664277
 30
0.0
 10
1.438359578452564
 20
-1.745953886213803
 30
0.0
  0
SPLINE
  5
130
330
1F
100
AcDbEntity
  8
0
  6
Continuous
 62
     7
370
    25
100
AcDbSpline
210
0.0
220
0.0
230
1.0
 70
     8
 71
     3
 72
    10
 73
     6
 74
     0
 42
0.00000001
 43
0.00000001
 40
0.0
 40
0.0
 40
0.0
 40
0.0
 40
0.2783675027780297
 40
0.5572303679117204
 40
1.0
 40
1.0
 40
1.0
 40
1.0
 10
1.347830136619068
 20
-1.561853655678927
 30
0.0
 10
1.35302026764507
 20
-1.562476866589117
 30
0.0
 10
1.363409765672918
 20
-1.563724397429844
 30
0.0
 10
1.375187421992553
 20
-1.579043526412078
 30
0.0
 10
1.379333516826867
 20
-1.591302250181938
 30
0.0
 10
1.381877422334807
 20
-1.598823794228732
 30
0.0
  0
SPLINE
  5
131
330
1F
100
AcDbEntity
  8
0
  6
Continuous
 62
     7
370
    25
100
AcDbSpline
210
0.0
220
0.0
230
1.0
 70
     8
 71
     3
 72
    10
 73
     6
 74
     0
 42
0.00000001
 43
0.00000001
 40
0.0
 40
0.0
 40
0.0
 40
0.0
 40
0.560980939785098
 40
0.7803089663190882
 40
1.0
 40
1.0
 40
1.0
 40
1.0
 10
1.314059336982228
 20
-1.599060782296362
 30
0.0
 10
1.317095612646448
 20
-1.589162328825655
 30
0.0
 10
1.321318988089319
 20
-1.575393853913043
 30
0.0
 10
1.33567295181531
 20
-1.562830395639169
 30
0.0
 10
1.343775508458762
 20
-1.562179415088858
 30
0.0
 10
1.347830136619068
 20
-1.561853655678927
 30
0.0
  0
SPLINE
  5
133
330
1F
100
AcDbEntity
  8
0
  6
Continuous
 62
     7
370
    25
100
AcDbSpline
210
0.0
220
0.0
230
1.0
 70
     8
 71
     3
 72
     9
 73
     5
 74
     0
 42
0.00000001
 43
0.00000001
 40
0.0
 40
0.0
 40
0.0
 40
0.0
 40
0.5587966818694412
 40
1.0
 40
1.0
 40
1.0
 40
1.0
 10
1.258880615236418
 20
-1.746190874281431
 30
0.0
 10
1.259519293939024
 20
-1.742315765962336
 30
0.0
 10
1.26066224758089
 20
-1.735381028436458
 30
0.0
 10
1.263372539202784
 20
-1.728904398951988
 30
0.0
 10
1.264568328859465
 20
-1.726046888533138
 30
0.0
  0
SPLINE
  5
134
330
1F
100
AcDbEntity
  8
0
  6
Continuous
 62
     7
370
    25
100
AcDbSpline
210
0.0
220
0.0
230
1.0
 70
     8
 71
     3
 72
    11
 73
     7
 74
     0
 42
0.00000001
 43
0.00000001
 40
0.0
 40
0.0
 40
0.0
 40
0.0
 40
0.2796082409821141
 40
0.5596508663626263
 40
0.7799583753466957
 40
1.0
 40
1.0
 40
1.0
 40
1.0
 10
1.277602672578947
 20
-1.764083473387265
 30
0.0
 10
1.274926534831357
 20
-1.763739975124374
 30
0.0
 10
1.269570101831799
 20
-1.763052444958074
 30
0.0
 10
1.263698328123594
 20
-1.758158266806521
 30
0.0
 10
1.259582755003297
 20
-1.752508767835241
 30
0.0
 10
1.259114567594319
 20
-1.748295990902937
 30
0.0
 10
1.258880615236418
 20
-1.746190874281431
 30
0.0
  0
SPLINE
  5
135
330
1F
100
AcDbEntity
  8
0
  6
Continuous
 62
     7
370
    25
100
AcDbSpline
210
0.0
220
0.0
230
1.0
 70
     8
 71
     3
 72
    10
 73
     6
 74
     0
 42
0.00000001
 43
0.00000001
 40
0.0
 40
0.0
 40
0.0
 40
0.0
 40
0.5619643746455643
 40
0.7798426951519578
 40
0.9999999999999999
 40
0.9999999999999999
 40
0.9999999999999999
 40
0.9999999999999999
 10
1.299405574800627
 20
-1.74014767855694
 30
0.0
 10
1.297323266932924
 20
-1.746432832563712
 30
0.0
 10
1.294433630769227
 20
-1.755154793707917
 30
0.0
 10
1.285514977499288
 20
-1.763707445569098
 30
0.0
 10
1.280249239636212
 20
-1.763957696784088
 30
0.0
 10
1.277602672578947
 20
-1.764083473387265
 30
0.0
  0
SPLINE
  5
139
330
1F
100
AcDbEntity
  8
0
  6
Continuous
 62
     7
370
    25
100
AcDbSpline
210
0.0
220
0.0
230
1.0
 70
     8
 71
     3
 72
    10
 73
     6
 74
     0
 42
0.00000001
 43
0.00000001
 40
0.0
 40
0.0
 40
0.0
 40
0.0
 40
0.2784437235519074
 40
0.557213889474852
 40
1.0
 40
1.0
 40
1.0
 40
1.0
 10
1.419242540997324
 20
-1.764083473387267
 30
0.0
 10
1.415809410113874
 20
-1.763640041064207
 30
0.0
 10
1.408939123406599
 20
-1.762752656546072
 30
0.0
 10
1.401553841805153
 20
-1.752382279857895
 30
0.0
 10
1.398441243714002
 20
-1.74448215189324
 30
0.0
 10
1.396531184516412
 20
-1.739634204410418
 30
0.0
  0
SPLINE
  5
13A
330
1F
100
AcDbEntity
  8
0
  6
Continuous
 62
     7
370
    25
100
AcDbSpline
210
0.0
220
0.0
230
1.0
 70
     8
 71
     3
 72
    11
 73
     7
 74
     0
 42
0.00000001
 43
0.00000001
 40
0.0
 40
0.0
 40
0.0
 40
0.0
 40
0.2808190002357169
 40
0.5601054641905686
 40
0.7799040663919454
 40
1.0
 40
1.0
 40
1.0
 40
1.0
 10
0.8316701253275619
 20
-1.585947442554339
 30
0.0
 10
0.8318104984137598
 20
-1.582720144658684
 30
0.0
 10
0.8320904785167389
 20
-1.576283161461643
 30
0.0
 10
0.8359186767152391
 20
-1.567848855197867
 30
0.0
 10
0.8427868016396801
 20
-1.562581821527646
 30
0.0
 10
0.847882239639456
 20
-1.562096486976835
 30
0.0
 10
0.8504316806813617
 20
-1.561853655678928
 30
0.0
  0
SPLINE
  5
13C
330
1F
100
AcDbEntity
  8
0
  6
Continuous
 62
     7
370
    25
100
AcDbSpline
210
0.0
220
0.0
230
1.0
 70
     8
 71
     3
 72
    11
 73
     7
 74
     0
 42
0.00000001
 43
0.00000001
 40
0.0
 40
0.0
 40
0.0
 40
0.0
 40
0.2810429463727516
 40
0.5580721586404652
 40
0.7785906761558095
 40
1.0
 40
1.0
 40
1.0
 40
1.0
 10
0.8548949559550001
 20
-1.76155560066591
 30
0.0
 10
0.8512245527312005
 20
-1.761423477890598
 30
0.0
 10
0.843936165398861
 20
-1.761161119260449
 30
0.0
 10
0.8350120525441118
 20
-1.754863614022466
 30
0.0
 10
0.8319991375281209
 20
-1.745740652010883
 30
0.0
 10
0.8317799433397026
 20
-1.740040932173013
 30
0.0
 10
0.8316701253275608
 20
-1.73718532771161
 30
0.0
  0
SPLINE
  5
13E
330
1F
100
AcDbEntity
  8
0
  6
Continuous
 62
     7
370
    25
100
AcDbSpline
210
0.0
220
0.0
230
1.0
 70
     8
 71
     3
 72
    10
 73
     6
 74
     0
 42
0.00000001
 43
0.00000001
 40
0.0
 40
0.0
 40
0.0
 40
0.0
 40
0.2803873437160386
 40
0.5601913074252258
 40
1.0
 40
1.0
 40
1.0
 40
1.0
 10
0.9697156747202622
 20
-1.74524292201092
 30
0.0
 10
0.969388698967797
 20
-1.747974333986366
 30
0.0
 10
0.9687354277757296
 20
-1.753431474902081
 30
0.0
 10
0.9612553319181169
 20
-1.760679947333951
 30
0.0
 10
0.9541753049184677
 20
-1.761223435014953
 30
0.0
 10
0.9498481750508668
 20
-1.76155560066591
 30
0.0
  0
SPLINE
  5
13F
330
1F
100
AcDbEntity
  8
0
  6
Continuous
 62
     7
370
    25
100
AcDbSpline
210
0.0
220
0.0
230
1.0
 70
     8
 71
     3
 72
    11
 73
     7
 74
     0
 42
0.00000001
 43
0.00000001
 40
0.0
 40
0.0
 40
0.0
 40
0.0
 40
0.2806898236514161
 40
0.5599567338917419
 40
0.7799666375581792
 40
1.0
 40
1.0
 40
1.0
 40
1.0
 10
0.9498481750508664
 20
-1.728693255288306
 30
0.0
 10
0.9525765249037818
 20
-1.728839829383975
 30
0.0
 10
0.9580193936643173
 20
-1.729132234540729
 30
0.0
 10
0.964886230926045
 20
-1.73291287076988
 30
0.0
 10
0.9690505084614132
 20
-1.738820057783476
 30
0.0
 10
0.9694939447540931
 20
-1.743101891180036
 30
0.0
 10
0.9697156747202622
 20
-1.74524292201092
 30
0.0
  0
SPLINE
  5
142
330
1F
100
AcDbEntity
  8
0
  6
Continuous
 62
     7
370
    25
100
AcDbSpline
210
0.0
220
0.0
230
1.0
 70
     8
 71
     3
 72
    10
 73
     6
 74
     0
 42
0.00000001
 43
0.00000001
 40
0.0
 40
0.0
 40
0.0
 40
0.0
 40
0.2800831870059409
 40
0.5594980782960441
 40
1.0
 40
1.0
 40
1.0
 40
1.0
 10
0.8504316806813617
 20
-1.561853655678928
 30
0.0
 10
0.8537094904244461
 20
-1.562260509595672
 30
0.0
 10
0.8602572888549065
 20
-1.563073246650682
 30
0.0
 10
0.8688076352733078
 20
-1.572226681964629
 30
0.0
 10
0.8692919029593597
 20
-1.580738959421238
 30
0.0
 10
0.8695882161478764
 20
-1.585947442554337
 30
0.0
  0
SPLINE
  5
143
330
1F
100
AcDbEntity
  8
0
  6
Continuous
 62
     7
370
    25
100
AcDbSpline
210
0.0
220
0.0
230
1.0
 70
     8
 71
     3
 72
     9
 73
     5
 74
     0
 42
0.00000001
 43
0.00000001
 40
0.0
 40
0.0
 40
0.0
 40
0.0
 40
0.5578904246019424
 40
1.0
 40
1.0
 40
1.0
 40
1.0
 10
0.6039640903493289
 20
-1.74583539217999
 30
0.0
 10
0.5941781613969438
 20
-1.752105498850304
 30
0.0
 10
0.5766372097676569
 20
-1.763344456168469
 30
0.0
 10
0.5559271054534817
 20
-1.763856911831621
 30
0.0
 10
0.5467709700286922
 20
-1.764083473387269
 30
0.0
  0
SPLINE
  5
144
330
1F
100
AcDbEntity
  8
0
  6
Continuous
 62
     7
370
    25
100
AcDbSpline
210
0.0
220
0.0
230
1.0
 70
     8
 71
     3
 72
     9
 73
     5
 74
     0
 42
0.00000001
 43
0.00000001
 40
0.0
 40
0.0
 40
0.0
 40
0.0
 40
0.5618830719153493
 40
1.0
 40
1.0
 40
1.0
 40
1.0
 10
0.6243845621765192
 20
-1.680347689492404
 30
0.0
 10
0.6243846246214769
 20
-1.693920421838764
 30
0.0
 10
0.6243847357566241
 20
-1.718076216922773
 30
0.0
 10
0.610185163379368
 20
-1.737378663556364
 30
0.0
 10
0.6039640903493289
 20
-1.74583539217999
 30
0.0
  0
SPLINE
  5
146
330
1F
100
AcDbEntity
  8
0
  6
Continuous
 62
     7
370
    25
100
AcDbSpline
210
0.0
220
0.0
230
1.0
 70
     8
 71
     3
 72
    10
 73
     6
 74
     0
 42
0.00000001
 43
0.00000001
 40
0.0
 40
0.0
 40
0.0
 40
0.0
 40
0.2799727566502621
 40
0.5595509455786682
 40
1.0
 40
1.0
 40
1.0
 40
1.0
 10
0.605228026710004
 20
-1.561853655678928
 30
0.0
 10
0.6085015488418564
 20
-1.562265836842345
 30
0.0
 10
0.6150439797060808
 20
-1.563089618279152
 30
0.0
 10
0.6235843278859087
 20
-1.572237472021958
 30
0.0
 10
0.6240808399572111
 20
-1.580743938123674
 30
0.0
 10
0.624384562176521
 20
-1.585947442554337
 30
0.0
  0
SPLINE
  5
147
330
1F
100
AcDbEntity
  8
0
  6
Continuous
 62
     7
370
    25
100
AcDbSpline
210
0.0
220
0.0
230
1.0
 70
     8
 71
     3
 72
    11
 73
     7
 74
     0
 42
0.00000001
 43
0.00000001
 40
0.0
 40
0.0
 40
0.0
 40
0.0
 40
0.2810567432908631
 40
0.5604411006524557
 40
0.7800941208618585
 40
0.9999999999999999
 40
0.9999999999999999
 40
0.9999999999999999
 40
0.9999999999999999
 10
0.5864664713562051
 20
-1.586026438576884
 30
0.0
 10
0.5865886036032708
 20
-1.58278463965964
 30
0.0
 10
0.5868321413678135
 20
-1.576320331662609
 30
0.0
 10
0.5906375473108374
 20
-1.567819723149116
 30
0.0
 10
0.5975653887079384
 20
-1.562578709364392
 30
0.0
 10
0.602672834679535
 20
-1.562095432909988
 30
0.0
 10
0.605228026710004
 20
-1.561853655678928
 30
0.0
  0
SPLINE
  5
149
330
1F
100
AcDbEntity
  8
0
  6
Continuous
 62
     7
370
    25
100
AcDbSpline
210
0.0
220
0.0
230
1.0
 70
     8
 71
     3
 72
    11
 73
     7
 74
     0
 42
0.00000001
 43
0.00000001
 40
0.0
 40
0.0
 40
0.0
 40
0.0
 40
0.1877323562678765
 40
0.3747018880165328
 40
0.5610517356127473
 40
1.0
 40
1.0
 40
1.0
 40
1.0
 10
0.5436901251495396
 20
-1.733749000731017
 30
0.0
 10
0.5484242927628765
 20
-1.733540123334255
 30
0.0
 10
0.5578733913528544
 20
-1.733123217285205
 30
0.0
 10
0.5715805923783881
 20
-1.727985904515134
 30
0.0
 10
0.5851076816830029
 20
-1.711377098473422
 30
0.0
 10
0.5859060387515352
 20
-1.695095157976348
 30
0.0
 10
0.5864664713562044
 20
-1.683665522439185
 30
0.0
  0
SPLINE
  5
14A
330
1F
100
AcDbEntity
  8
0
  6
Continuous
 62
     7
370
    25
100
AcDbSpline
210
0.0
220
0.0
230
1.0
 70
     8
 71
     3
 72
    11
 73
     7
 74
     0
 42
0.00000001
 43
0.00000001
 40
0.0
 40
0.0
 40
0.0
 40
0.0
 40
0.2815953692423478
 40
0.5597434595540431
 40
0.7789936447083159
 40
1.0
 40
1.0
 40
1.0
 40
1.0
 10
0.5005187988301626
 20
-1.682836064202491
 30
0.0
 10
0.500737044272373
 20
-1.690034927003429
 30
0.0
 10
0.5011708634050648
 20
-1.704344524422924
 30
0.0
 10
0.5094559882107347
 20
-1.723929693108508
 30
0.0
 10
0.5266810139348982
 20
-1.73303276572509
 30
0.0
 10
0.5380053639138355
 20
-1.733509621674347
 30
0.0
 10
0.5436901251495395
 20
-1.733749000731016
 30
0.0
  0
SPLINE
  5
14C
330
1F
100
AcDbEntity
  8
0
  6
Continuous
 62
     7
370
    25
100
AcDbSpline
210
0.0
220
0.0
230
1.0
 70
     8
 71
     3
 72
    10
 73
     6
 74
     0
 42
0.00000001
 43
0.00000001
 40
0.0
 40
0.0
 40
0.0
 40
0.0
 40
0.2801749416264421
 40
0.5596134021378573
 40
1.0
 40
1.0
 40
1.0
 40
1.0
 10
0.48136226336365
 20
-1.561853655678934
 30
0.0
 10
0.4846620123755324
 20
-1.562234127924955
 30
0.0
 10
0.4912528365228345
 20
-1.562994072289639
 30
0.0
 10
0.499682137561864
 20
-1.57232082262315
 30
0.0
 10
0.5002012236640033
 20
-1.580824138161239
 30
0.0
 10
0.5005187988301627
 20
-1.586026438576883
 30
0.0
  0
SPLINE
  5
14D
330
1F
100
AcDbEntity
  8
0
  6
Continuous
 62
     7
370
    25
100
AcDbSpline
210
0.0
220
0.0
230
1.0
 70
     8
 71
     3
 72
    11
 73
     7
 74
     0
 42
0.00000001
 43
0.00000001
 40
0.0
 40
0.0
 40
0.0
 40
0.0
 40
0.2808181053147074
 40
0.560108695718647
 40
0.7799054619568754
 40
1.0
 40
1.0
 40
1.0
 40
1.0
 10
0.4626007080098498
 20
-1.585868446531796
 30
0.0
 10
0.4627399198714937
 20
-1.582647092601843
 30
0.0
 10
0.4630175863494668
 20
-1.576221907352011
 30
0.0
 10
0.466877910174181
 20
-1.567823376332797
 30
0.0
 10
0.4737335911788115
 20
-1.562577808988108
 30
0.0
 10
0.4788182253362722
 20
-1.562095149022933
 30
0.0
 10
0.4813622633636501
 20
-1.561853655678934
 30
0.0
  0
SPLINE
  5
14F
330
1F
100
AcDbEntity
  8
0
  6
Continuous
 62
     7
370
    25
100
AcDbSpline
210
0.0
220
0.0
230
1.0
 70
     8
 71
     3
 72
    11
 73
     7
 74
     0
 42
0.00000001
 43
0.00000001
 40
0.0
 40
0.0
 40
0.0
 40
0.0
 40
0.2812360854727277
 40
0.5585037494637187
 40
0.7786403445135875
 40
1.0
 40
1.0
 40
1.0
 40
1.0
 10
0.5467709700286922
 20
-1.764083473387268
 30
0.0
 10
0.5338371923541438
 20
-1.763606734259731
 30
0.0
 10
0.5081521409005815
 20
-1.76265998309941
 30
0.0
 10
0.4753732058680794
 20
-1.742379693810768
 30
0.0
 10
0.4637381723391092
 20
-1.710178725192973
 30
0.0
 10
0.4629805623790515
 20
-1.69002033065702
 30
0.0
 10
0.462600708009852
 20
-1.679913211368425
 30
0.0
  0
SPLINE
  5
15C
330
1F
100
AcDbEntity
  8
0
  6
Continuous
 62
     7
370
    25
100
AcDbSpline
210
0.0
220
0.0
230
1.0
 70
     8
 71
     3
 72
    11
 73
     7
 74
     0
 42
0.00000001
 43
0.00000001
 40
0.0
 40
0.0
 40
0.0
 40
0.0
 40
0.2800708183299022
 40
0.5586022370481077
 40
0.7790495076283439
 40
1.0
 40
1.0
 40
1.0
 40
1.0
 10
-0.3537836869537303
 20
-1.764083473387271
 30
0.0
 10
-0.3686567624000778
 20
-1.762740053953766
 30
0.0
 10
-0.3983211639455781
 20
-1.760060599145426
 30
0.0
 10
-0.432171508498345
 20
-1.732687842560978
 30
0.0
 10
-0.4476360288900164
 20
-1.697242470295271
 30
0.0
 10
-0.4491856503400247
 20
-1.674033371636193
 30
0.0
 10
-0.449961344399005
 20
-1.662415592375304
 30
0.0
  0
SPLINE
  5
15D
330
1F
100
AcDbEntity
  8
0
  6
Continuous
 62
     7
370
    25
100
AcDbSpline
210
0.0
220
0.0
230
1.0
 70
     8
 71
     3
 72
    11
 73
     7
 74
     0
 42
0.00000001
 43
0.00000001
 40
0.0
 40
0.0
 40
0.0
 40
0.0
 40
0.2805025343621892
 40
0.5593743192297365
 40
0.7793488468630052
 40
1.0
 40
1.0
 40
1.0
 40
1.0
 10
-0.2578430175760852
 20
-1.662692078454203
 30
0.0
 10
-0.2589252937556055
 20
-1.677507541564556
 30
0.0
 10
-0.2610835541168329
 20
-1.70705233555464
 30
0.0
 10
-0.284693435681171
 20
-1.743043333840976
 30
0.0
 10
-0.3189240941213951
 20
-1.761746951302875
 30
0.0
 10
-0.342151933107323
 20
-1.763303835774373
 30
0.0
 10
-0.3537836869537304
 20
-1.764083473387271
 30
0.0
  0
SPLINE
  5
15E
330
1F
100
AcDbEntity
  8
0
  6
Continuous
 62
     7
370
    25
100
AcDbSpline
210
0.0
220
0.0
230
1.0
 70
     8
 71
     3
 72
    11
 73
     7
 74
     0
 42
0.00000001
 43
0.00000001
 40
0.0
 40
0.0
 40
0.0
 40
0.0
 40
0.2801768570239108
 40
0.5587325629783007
 40
0.7790301703731897
 40
1.0
 40
1.0
 40
1.0
 40
1.0
 10
-0.3545736471791551
 20
-1.561853655678934
 30
0.0
 10
-0.3396864799008258
 20
-1.563091005120231
 30
0.0
 10
-0.3099982850325477
 20
-1.56555854448797
 30
0.0
 10
-0.2757991443769838
 20
-1.592465166624084
 30
0.0
 10
-0.2599296667966144
 20
-1.627817370147129
 30
0.0
 10
-0.2585392733532401
 20
-1.651055375506483
 30
0.0
 10
-0.2578430175760852
 20
-1.662692078454203
 30
0.0
  0
SPLINE
  5
15F
330
1F
100
AcDbEntity
  8
0
  6
Continuous
 62
     7
370
    25
100
AcDbSpline
210
0.0
220
0.0
230
1.0
 70
     8
 71
     3
 72
    11
 73
     7
 74
     0
 42
0.00000001
 43
0.00000001
 40
0.0
 40
0.0
 40
0.0
 40
0.0
 40
0.2804651791971668
 40
0.5593624060834079
 40
0.7793503629720117
 40
1.0
 40
1.0
 40
1.0
 40
1.0
 10
-0.449961344399005
 20
-1.662415592375303
 30
0.0
 10
-0.4487993300386511
 20
-1.64773705180708
 30
0.0
 10
-0.4464817976078104
 20
-1.61846203166541
 30
0.0
 10
-0.4230331357400447
 20
-1.582848727294752
 30
0.0
 10
-0.3891370649110742
 20
-1.56423178023531
 30
0.0
 10
-0.3661063144077377
 20
-1.562647157043571
 30
0.0
 10
-0.3545736471791551
 20
-1.561853655678934
 30
0.0
  0
SPLINE
  5
160
330
1F
100
AcDbEntity
  8
0
  6
Continuous
 62
     7
370
    25
100
AcDbSpline
210
0.0
220
0.0
230
1.0
 70
     8
 71
     3
 72
    11
 73
     7
 74
     0
 42
0.00000001
 43
0.00000001
 40
0.0
 40
0.0
 40
0.0
 40
0.0
 40
0.2808936797530673
 40
0.5600902889428175
 40
0.7798417495224801
 40
1.0
 40
1.0
 40
1.0
 40
1.0
 10
-0.659577290215043
 20
-1.566909401121646
 30
0.0
 10
-0.6568075861816864
 20
-1.567030912812629
 30
0.0
 10
-0.6512849117886833
 20
-1.567273202059482
 30
0.0
 10
-0.6440702859216396
 20
-1.570757295798385
 30
0.0
 10
-0.6399279288687169
 20
-1.576888084749378
 30
0.0
 10
-0.639519309196736
 20
-1.581241066386639
 30
0.0
 10
-0.6393148104329378
 20
-1.583419569832988
 30
0.0
  0
SPLINE
  5
162
330
1F
100
AcDbEntity
  8
0
  6
Continuous
 62
     7
370
    25
100
AcDbSpline
210
0.0
220
0.0
230
1.0
 70
     8
 71
     3
 72
    10
 73
     6
 74
     0
 42
0.00000001
 43
0.00000001
 40
0.0
 40
0.0
 40
0.0
 40
0.0
 40
0.2804203708698592
 40
0.5600921305273707
 40
0.9999999999999999
 40
0.9999999999999999
 40
0.9999999999999999
 40
0.9999999999999999
 10
-0.8038635253885856
 20
-1.583419569832987
 30
0.0
 10
-0.8035688416809963
 20
-1.580650746464229
 30
0.0
 10
-0.802980260954484
 20
-1.575120491387354
 30
0.0
 10
-0.7954146739752663
 20
-1.567767973938169
 30
0.0
 10
-0.7882547066792135
 20
-1.567235142398682
 30
0.0
 10
-0.78387753168538
 20
-1.566909401121643
 30
0.0
  0
SPLINE
  5
163
330
1F
100
AcDbEntity
  8
0
  6
Continuous
 62
     7
370
    25
100
AcDbSpline
210
0.0
220
0.0
230
1.0
 70
     8
 71
     3
 72
    11
 73
     7
 74
     0
 42
0.00000001
 43
0.00000001
 40
0.0
 40
0.0
 40
0.0
 40
0.0
 40
0.2809390674211713
 40
0.5600592284564477
 40
0.7797379131685388
 40
1.0
 40
1.0
 40
1.0
 40
1.0
 10
-0.7838775316853794
 20
-1.599771746499248
 30
0.0
 10
-0.786620285761188
 20
-1.599662119007083
 30
0.0
 10
-0.7920880362796319
 20
-1.599443573792838
 30
0.0
 10
-0.7991555706271976
 20
-1.595904113422202
 30
0.0
 10
-0.803311348411047
 20
-1.589892494338295
 30
0.0
 10
-0.803679303748479
 20
-1.585579117979978
 30
0.0
 10
-0.8038635253885856
 20
-1.583419569832987
 30
0.0
  0
SPLINE
  5
166
330
1F
100
AcDbEntity
  8
0
  6
Continuous
 62
     7
370
    25
100
AcDbSpline
210
0.0
220
0.0
230
1.0
 70
     8
 71
     3
 72
    10
 73
     6
 74
     0
 42
0.00000001
 43
0.00000001
 40
0.0
 40
0.0
 40
0.0
 40
0.0
 40
0.2799983909137951
 40
0.5598079034653584
 40
0.9999999999999999
 40
0.9999999999999999
 40
0.9999999999999999
 40
0.9999999999999999
 10
-0.7215891679107632
 20
-1.764083473387273
 30
0.0
 10
-0.7248367884835559
 20
-1.763679998612083
 30
0.0
 10
-0.7313298388834989
 20
-1.762873321233464
 30
0.0
 10
-0.7397633573498472
 20
-1.753784979892834
 30
0.0
 10
-0.7403239649914278
 20
-1.745370866288535
 30
0.0
 10
-0.7406667073547316
 20
-1.740226674579495
 30
0.0
  0
SPLINE
  5
167
330
1F
100
AcDbEntity
  8
0
  6
Continuous
 62
     7
370
    25
100
AcDbSpline
210
0.0
220
0.0
230
1.0
 70
     8
 71
     3
 72
    11
 73
     7
 74
     0
 42
0.00000001
 43
0.00000001
 40
0.0
 40
0.0
 40
0.0
 40
0.0
 40
0.2809525957424104
 40
0.5602194917988236
 40
0.7800218776585441
 40
0.9999999999999999
 40
0.9999999999999999
 40
0.9999999999999999
 40
0.9999999999999999
 10
-0.7027486165344184
 20
-1.740226674579492
 30
0.0
 10
-0.7028743967513031
 20
-1.74344593856841
 30
0.0
 10
-0.7031252025108844
 20
-1.74986515114437
 30
0.0
 10
-0.7070828259413494
 20
-1.758224209657219
 30
0.0
 10
-0.7139873540281984
 20
-1.763349926707698
 30
0.0
 10
-0.7190545549980069
 20
-1.763838892697074
 30
0.0
 10
-0.7215891679107632
 20
-1.764083473387273
 30
0.0
  0
SPLINE
  5
16A
330
1F
100
AcDbEntity
  8
0
  6
Continuous
 62
     7
370
    25
100
AcDbSpline
210
0.0
220
0.0
230
1.0
 70
     8
 71
     3
 72
    10
 73
     6
 74
     0
 42
0.00000001
 43
0.00000001
 40
0.0
 40
0.0
 40
0.0
 40
0.0
 40
0.2802367738577387
 40
0.5598983450287558
 40
1.0
 40
1.0
 40
1.0
 40
1.0
 10
-0.6393148104329378
 20
-1.583419569832988
 30
0.0
 10
-0.639646025315103
 20
-1.586193009088519
 30
0.0
 10
-0.6403077752411394
 20
-1.591734194950149
 30
0.0
 10
-0.6479883221784248
 20
-1.599019425500091
 30
0.0
 10
-0.6551799469594835
 20
-1.59948628418188
 30
0.0
 10
-0.6595772902150426
 20
-1.599771746499251
 30
0.0
  0
SPLINE
  5
16B
330
1F
100
AcDbEntity
  8
0
  6
Continuous
 62
     7
370
    25
100
AcDbSpline
210
0.0
220
0.0
230
1.0
 70
     8
 71
     3
 72
    10
 73
     6
 74
     0
 42
0.00000001
 43
0.00000001
 40
0.0
 40
0.0
 40
0.0
 40
0.0
 40
0.2809819264372359
 40
0.5617767413353619
 40
1.0
 40
1.0
 40
1.0
 40
1.0
 10
-1.02631632486775
 20
-1.706376878920112
 30
0.0
 10
-1.026809056644956
 20
-1.712052945000286
 30
0.0
 10
-1.027794192079327
 20
-1.723401297353606
 30
0.0
 10
-1.037367934075423
 20
-1.742073206531535
 30
0.0
 10
-1.049962300974555
 20
-1.74985881811367
 30
0.0
 10
-1.057638247805778
 20
-1.754603950682196
 30
0.0
  0
SPLINE
  5
16C
330
1F
100
AcDbEntity
  8
0
  6
Continuous
 62
     7
370
    25
100
AcDbSpline
210
0.0
220
0.0
230
1.0
 70
     8
 71
     3
 72
    11
 73
     7
 74
     0
 42
0.00000001
 43
0.00000001
 40
0.0
 40
0.0
 40
0.0
 40
0.0
 40
0.2805250099072628
 40
0.5599636072430819
 40
0.7797401528665041
 40
1.0
 40
1.0
 40
1.0
 40
1.0
 10
-1.065142869947303
 20
-1.659295249484888
 30
0.0
 10
-1.059333854837546
 20
-1.661426315949368
 30
0.0
 10
-1.047738321674694
 20
-1.665680195719727
 30
0.0
 10
-1.034476551376796
 20
-1.677287759601855
 30
0.0
 10
-1.027269093371785
 20
-1.691808775543459
 30
0.0
 10
-1.026634146827613
 20
-1.701517290103888
 30
0.0
 10
-1.02631632486775
 20
-1.706376878920112
 30
0.0
  0
SPLINE
  5
16D
330
1F
100
AcDbEntity
  8
0
  6
Continuous
 62
     7
370
    25
100
AcDbSpline
210
0.0
220
0.0
230
1.0
 70
     8
 71
     3
 72
    10
 73
     6
 74
     0
 42
0.00000001
 43
0.00000001
 40
0.0
 40
0.0
 40
0.0
 40
0.0
 40
0.280665021403788
 40
0.5607866225131208
 40
1.0
 40
1.0
 40
1.0
 40
1.0
 10
-1.035598357516476
 20
-1.61624241719932
 30
0.0
 10
-1.036003430781212
 20
-1.621432259212959
 30
0.0
 10
-1.036812793012619
 20
-1.631801894729521
 30
0.0
 10
-1.046284699614079
 20
-1.648509521753142
 30
0.0
 10
-1.057993612307958
 20
-1.65520630845723
 30
0.0
 10
-1.065142869947303
 20
-1.659295249484888
 30
0.0
  0
SPLINE
  5
16E
330
1F
100
AcDbEntity
  8
0
  6
Continuous
 62
     7
370
    25
100
AcDbSpline
210
0.0
220
0.0
230
1.0
 70
     8
 71
     3
 72
    10
 73
     6
 74
     0
 42
0.00000001
 43
0.00000001
 40
0.0
 40
0.0
 40
0.0
 40
0.0
 40
0.2807336865976197
 40
0.5614234269157838
 40
0.9999999999999999
 40
0.9999999999999999
 40
0.9999999999999999
 40
0.9999999999999999
 10
-1.058981180189004
 20
-1.575480469567488
 30
0.0
 10
-1.055245947607068
 20
-1.578150950049716
 30
0.0
 10
-1.04777606715954
 20
-1.58349149297499
 30
0.0
 10
-1.038063300920495
 20
-1.597211993642723
 30
0.0
 10
-1.036532047608283
 20
-1.609033927994779
 30
0.0
 10
-1.035598357516476
 20
-1.61624241719932
 30
0.0
  0
SPLINE
  5
16F
330
1F
100
AcDbEntity
  8
0
  6
Continuous
 62
     7
370
    25
100
AcDbSpline
210
0.0
220
0.0
230
1.0
 70
     8
 71
     3
 72
     9
 73
     5
 74
     0
 42
0.00000001
 43
0.00000001
 40
0.0
 40
0.0
 40
0.0
 40
0.0
 40
0.5610304926677132
 40
1.0
 40
1.0
 40
1.0
 40
1.0
 10
-1.101362546282953
 20
-1.566909401121643
 30
0.0
 10
-1.093079209605822
 20
-1.5668901222372
 30
0.0
 10
-1.078314706097745
 20
-1.566855758892078
 30
0.0
 10
-1.064879031602749
 20
-1.57284943049628
 30
0.0
 10
-1.058981180189004
 20
-1.575480469567488
 30
0.0
  0
SPLINE
  5
171
330
1F
100
AcDbEntity
  8
0
  6
Continuous
 62
     7
370
    25
100
AcDbSpline
210
0.0
220
0.0
230
1.0
 70
     8
 71
     3
 72
    11
 73
     7
 74
     0
 42
0.00000001
 43
0.00000001
 40
0.0
 40
0.0
 40
0.0
 40
0.0
 40
0.2811168571249257
 40
0.5585711928082
 40
0.7788144455671429
 40
1.0
 40
1.0
 40
1.0
 40
1.0
 10
-1.188100179034418
 20
-1.591082184019594
 30
0.0
 10
-1.187958514391454
 20
-1.587401439492544
 30
0.0
 10
-1.187677030778522
 20
-1.580087904893716
 30
0.0
 10
-1.182051082921832
 20
-1.570644979617377
 30
0.0
 10
-1.172865727064931
 20
-1.567281296154993
 30
0.0
 10
-1.167121583109631
 20
-1.56703354242299
 30
0.0
 10
-1.164243380226639
 20
-1.566909401121646
 30
0.0
  0
SPLINE
  5
173
330
1F
100
AcDbEntity
  8
0
  6
Continuous
 62
     7
370
    25
100
AcDbSpline
210
0.0
220
0.0
230
1.0
 70
     8
 71
     3
 72
    11
 73
     7
 74
     0
 42
0.00000001
 43
0.00000001
 40
0.0
 40
0.0
 40
0.0
 40
0.0
 40
0.2810865883497308
 40
0.5580487550720633
 40
0.7786289783102044
 40
1.0
 40
1.0
 40
1.0
 40
1.0
 10
-1.164243380226641
 20
-1.761555600665921
 30
0.0
 10
-1.167937528828041
 20
-1.761432826290783
 30
0.0
 10
-1.175271621287469
 20
-1.761189079025562
 30
0.0
 10
-1.184555425907288
 20
-1.755240631456161
 30
0.0
 10
-1.18772981171197
 20
-1.746018020473122
 30
0.0
 10
-1.187976576078967
 20
-1.740264650236953
 30
0.0
 10
-1.188100179034419
 20
-1.73738281776797
 30
0.0
  0
SPLINE
  5
175
330
1F
100
AcDbEntity
  8
0
  6
Continuous
 62
     7
370
    25
100
AcDbSpline
210
0.0
220
0.0
230
1.0
 70
     8
 71
     3
 72
     9
 73
     5
 74
     0
 42
0.00000001
 43
0.00000001
 40
0.0
 40
0.0
 40
0.0
 40
0.0
 40
0.5591079404024052
 40
1.0
 40
1.0
 40
1.0
 40
1.0
 10
-1.057638247805778
 20
-1.754603950682196
 30
0.0
 10
-1.066288913242521
 20
-1.757082855655479
 30
0.0
 10
-1.08176117684607
 20
-1.761516534367856
 30
0.0
 10
-1.09783190906855
 20
-1.761543646945652
 30
0.0
 10
-1.10491736729736
 20
-1.761555600665917
 30
0.0
  0
SPLINE
  5
176
330
1F
100
AcDbEntity
  8
0
  6
Continuous
 62
     7
370
    25
100
AcDbSpline
210
0.0
220
0.0
230
1.0
 70
     8
 71
     3
 72
    11
 73
     7
 74
     0
 42
0.00000001
 43
0.00000001
 40
0.0
 40
0.0
 40
0.0
 40
0.0
 40
0.1246621424783263
 40
0.2493991093237583
 40
0.4988915017134593
 40
1.0
 40
1.0
 40
1.0
 40
1.0
 10
-1.590031941729731
 20
-1.612450608117291
 30
0.0
 10
-1.589798557725524
 20
-1.614776862034693
 30
0.0
 10
-1.589331649636008
 20
-1.619430766127205
 30
0.0
 10
-1.583419588107189
 20
-1.626941801109276
 30
0.0
 10
-1.56897387722819
 20
-1.634706570605432
 30
0.0
 10
-1.555429198986579
 20
-1.637656103112634
 30
0.0
 10
-1.546386639275102
 20
-1.63962523987185
 30
0.0
  0
SPLINE
  5
177
330
1F
100
AcDbEntity
  8
0
  6
Continuous
 62
     7
370
    25
100
AcDbSpline
210
0.0
220
0.0
230
1.0
 70
     8
 71
     3
 72
    11
 73
     7
 74
     0
 42
0.00000001
 43
0.00000001
 40
0.0
 40
0.0
 40
0.0
 40
0.0
 40
0.4990540308900256
 40
0.7492625184273628
 40
0.8746968002405767
 40
1.0
 40
1.0
 40
1.0
 40
1.0
 10
-1.554760217664582
 20
-1.589660255613837
 30
0.0
 10
-1.562602573587159
 20
-1.590332835761942
 30
0.0
 10
-1.574376816425102
 20
-1.591342624410909
 30
0.0
 10
-1.585390064121146
 20
-1.599885862095593
 30
0.0
 10
-1.589469631628552
 20
-1.606631803081289
 30
0.0
 10
-1.589844570366917
 20
-1.610511682554226
 30
0.0
 10
-1.590031941729731
 20
-1.612450608117291
 30
0.0
  0
SPLINE
  5
178
330
1F
100
AcDbEntity
  8
0
  6
Continuous
 62
     7
370
    25
100
AcDbSpline
210
0.0
220
0.0
230
1.0
 70
     8
 71
     3
 72
    10
 73
     6
 74
     0
 42
0.00000001
 43
0.00000001
 40
0.0
 40
0.0
 40
0.0
 40
0.0
 40
0.2813723521606211
 40
0.5612453676808331
 40
1.0
 40
1.0
 40
1.0
 40
1.0
 10
-1.516763130821731
 20
-1.614938982827376
 30
0.0
 10
-1.518866062906674
 20
-1.610882647877228
 30
0.0
 10
-1.523060721273632
 20
-1.602791592792923
 30
0.0
 10
-1.535096342319435
 20
-1.590585037268673
 30
0.0
 10
-1.547305795262463
 20
-1.590010833155846
 30
0.0
 10
-1.554760217664582
 20
-1.589660255613837
 30
0.0
  0
SPLINE
  5
179
330
1F
100
AcDbEntity
  8
0
  6
Continuous
 62
     7
370
    25
100
AcDbSpline
210
0.0
220
0.0
230
1.0
 70
     8
 71
     3
 72
    10
 73
     6
 74
     0
 42
0.00000001
 43
0.00000001
 40
0.0
 40
0.0
 40
0.0
 40
0.0
 40
0.2803740911870484
 40
0.5589470998439781
 40
1.0
 40
1.0
 40
1.0
 40
1.0
 10
-1.499147017794795
 20
-1.627420354389063
 30
0.0
 10
-1.501322326182339
 20
-1.627336805220998
 30
0.0
 10
-1.50565896909159
 20
-1.627170243592616
 30
0.0
 10
-1.512108751044437
 20
-1.622485707352894
 30
0.0
 10
-1.514994486746092
 20
-1.617806705329879
 30
0.0
 10
-1.516763130821731
 20
-1.614938982827376
 30
0.0
  0
SPLINE
  5
17A
330
1F
100
AcDbEntity
  8
0
  6
Continuous
 62
     7
370
    25
100
AcDbSpline
210
0.0
220
0.0
230
1.0
 70
     8
 71
     3
 72
    11
 73
     7
 74
     0
 42
0.00000001
 43
0.00000001
 40
0.0
 40
0.0
 40
0.0
 40
0.0
 40
0.279650524772091
 40
0.5596274404016557
 40
0.7797452100348321
 40
1.0
 40
1.0
 40
1.0
 40
1.0
 10
-1.482044378914379
 20
-1.609172273181787
 30
0.0
 10
-1.482361431265232
 20
-1.61176484204291
 30
0.0
 10
-1.482995906010902
 20
-1.616953005651748
 30
0.0
 10
-1.487447032751696
 20
-1.622883204709044
 30
0.0
 10
-1.492990885567612
 20
-1.626872599904075
 30
0.0
 10
-1.497094548105807
 20
-1.627237731690921
 30
0.0
 10
-1.499147017794795
 20
-1.627420354389063
 30
0.0
  0
SPLINE
  5
17B
330
1F
100
AcDbEntity
  8
0
  6
Continuous
 62
     7
370
    25
100
AcDbSpline
210
0.0
220
0.0
230
1.0
 70
     8
 71
     3
 72
    11
 73
     7
 74
     0
 42
0.00000001
 43
0.00000001
 40
0.0
 40
0.0
 40
0.0
 40
0.0
 40
0.4984301161458493
 40
0.7489216638241092
 40
0.8745518069941337
 40
1.0
 40
1.0
 40
1.0
 40
1.0
 10
-1.551797866819245
 20
-1.56185365567894
 30
0.0
 10
-1.536040605528698
 20
-1.563353516980462
 30
0.0
 10
-1.512364358928112
 20
-1.565607150107864
 30
0.0
 10
-1.491258278115473
 20
-1.583934131961671
 30
0.0
 10
-1.483414542163503
 20
-1.597554892174505
 30
0.0
 10
-1.482500879294576
 20
-1.605301684147885
 30
0.0
 10
-1.482044378914379
 20
-1.609172273181787
 30
0.0
  0
SPLINE
  5
17C
330
1F
100
AcDbEntity
  8
0
  6
Continuous
 62
     7
370
    25
100
AcDbSpline
210
0.0
220
0.0
230
1.0
 70
     8
 71
     3
 72
    10
 73
     6
 74
     0
 42
0.00000001
 43
0.00000001
 40
0.0
 40
0.0
 40
0.0
 40
0.0
 40
0.249979179379633
 40
0.5002289245242768
 40
1.0
 40
1.0
 40
1.0
 40
1.0
 10
-1.625422159828689
 20
-1.616123923165512
 30
0.0
 10
-1.624221861988197
 20
-1.607534138057829
 30
0.0
 10
-1.621819967161001
 20
-1.590345270661055
 30
0.0
 10
-1.595223096791654
 20
-1.565499236325066
 30
0.0
 10
-1.569162896912561
 20
-1.563311462987452
 30
0.0
 10
-1.551797866819245
 20
-1.56185365567894
 30
0.0
  0
SPLINE
  5
17D
330
1F
100
AcDbEntity
  8
0
  6
Continuous
 62
     7
370
    25
100
AcDbSpline
210
0.0
220
0.0
230
1.0
 70
     8
 71
     3
 72
    11
 73
     7
 74
     0
 42
0.00000001
 43
0.00000001
 40
0.0
 40
0.0
 40
0.0
 40
0.0
 40
0.2811728882842087
 40
0.5611360982202306
 40
0.780488978267806
 40
1.0
 40
1.0
 40
1.0
 40
1.0
 10
-1.559578975039663
 20
-1.673554031553779
 30
0.0
 10
-1.568225843124198
 20
-1.671311011478315
 30
0.0
 10
-1.585482378234641
 20
-1.666834621378769
 30
0.0
 10
-1.60819255880697
 20
-1.655957847482226
 30
0.0
 10
-1.623489951362221
 20
-1.637367846598007
 30
0.0
 10
-1.624777935634348
 20
-1.623206931906781
 30
0.0
 10
-1.625422159828689
 20
-1.616123923165512
 30
0.0
  0
SPLINE
  5
17E
330
1F
100
AcDbEntity
  8
0
  6
Continuous
 62
     7
370
    25
100
AcDbSpline
210
0.0
220
0.0
230
1.0
 70
     8
 71
     3
 72
    11
 73
     7
 74
     0
 42
0.00000001
 43
0.00000001
 40
0.0
 40
0.0
 40
0.0
 40
0.0
 40
0.1250476147792972
 40
0.249816766405013
 40
0.4988415818576425
 40
0.9999999999999999
 40
0.9999999999999999
 40
0.9999999999999999
 40
0.9999999999999999
 10
-1.511667887367751
 20
-1.705231436593248
 30
0.0
 10
-1.511859920380643
 20
-1.702609658674019
 30
0.0
 10
-1.512243558776373
 20
-1.697371941160016
 30
0.0
 10
-1.517686660349112
 20
-1.688099848214167
 30
0.0
 10
-1.533982434797187
 20
-1.678592669050294
 30
0.0
 10
-1.549327640721792
 20
-1.67557199011357
 30
0.0
 10
-1.559578975039663
 20
-1.673554031553779
 30
0.0
  0
SPLINE
  5
17F
330
1F
100
AcDbEntity
  8
0
  6
Continuous
 62
     7
370
    25
100
AcDbSpline
210
0.0
220
0.0
230
1.0
 70
     8
 71
     3
 72
    12
 73
     8
 74
     0
 42
0.00000001
 43
0.00000001
 40
0.0
 40
0.0
 40
0.0
 40
0.0
 40
0.250569144674946
 40
0.5006418392396661
 40
0.7498122522152024
 40
0.8748894109015001
 40
1.0
 40
1.0
 40
1.0
 40
1.0
 10
-1.552429834999579
 20
-1.733749000731026
 30
0.0
 10
-1.54781492218459
 20
-1.733524743506744
 30
0.0
 10
-1.538594240034662
 20
-1.73307667337675
 30
0.0
 10
-1.525443569497635
 20
-1.728202600694178
 30
0.0
 10
-1.516458073817867
 20
-1.720519297825975
 30
0.0
 10
-1.51220434372623
 20
-1.71216071941815
 30
0.0
 10
-1.511846722082534
 20
-1.707541403281225
 30
0.0
 10
-1.511667887367751
 20
-1.705231436593248
 30
0.0
  0
SPLINE
  5
180
330
1F
100
AcDbEntity
  8
0
  6
Continuous
 62
     7
370
    25
100
AcDbSpline
210
0.0
220
0.0
230
1.0
 70
     8
 71
     3
 72
    10
 73
     6
 74
     0
 42
0.00000001
 43
0.00000001
 40
0.0
 40
0.0
 40
0.0
 40
0.0
 40
0.2818327631505633
 40
0.561555639040489
 40
1.0
 40
1.0
 40
1.0
 40
1.0
 10
-1.594534715014644
 20
-1.703928002221302
 30
0.0
 10
-1.592453525161594
 20
-1.708703760993469
 30
0.0
 10
-1.588306725886629
 20
-1.718219525730071
 30
0.0
 10
-1.574479576940564
 20
-1.731885090440424
 30
0.0
 10
-1.560788375613344
 20
-1.733042436005411
 30
0.0
 10
-1.552429834999579
 20
-1.733749000731026
 30
0.0
  0
SPLINE
  5
181
330
1F
100
AcDbEntity
  8
0
  6
Continuous
 62
     7
370
    25
100
AcDbSpline
210
0.0
220
0.0
230
1.0
 70
     8
 71
     3
 72
    10
 73
     6
 74
     0
 42
0.00000001
 43
0.00000001
 40
0.0
 40
0.0
 40
0.0
 40
0.0
 40
0.2795294248384626
 40
0.5590229659262143
 40
1.0
 40
1.0
 40
1.0
 40
1.0
 10
-1.61195333798522
 20
-1.688168295724105
 30
0.0
 10
-1.609581718981114
 20
-1.688445022988181
 30
0.0
 10
-1.604838785422371
 20
-1.688998441992301
 30
0.0
 10
-1.598415237419486
 20
-1.695010031870414
 30
0.0
 10
-1.596008067103138
 20
-1.7005420379436
 30
0.0
 10
-1.594534715014643
 20
-1.703928002221301
 30
0.0
  0
SPLINE
  5
182
330
1F
100
AcDbEntity
  8
0
  6
Continuous
 62
     7
370
    25
100
AcDbSpline
210
0.0
220
0.0
230
1.0
 70
     8
 71
     3
 72
    11
 73
     7
 74
     0
 42
0.00000001
 43
0.00000001
 40
0.0
 40
0.0
 40
0.0
 40
0.0
 40
0.2798043716506022
 40
0.5595277578041811
 40
0.7797074047317107
 40
1.0
 40
1.0
 40
1.0
 40
1.0
 10
-1.629134972888178
 20
-1.705784408751044
 30
0.0
 10
-1.628848936687823
 20
-1.703212437797597
 30
0.0
 10
-1.628276947076326
 20
-1.698069240312046
 30
0.0
 10
-1.623746457048395
 20
-1.692211619946344
 30
0.0
 10
-1.618025313833295
 20
-1.688656129020792
 30
0.0
 10
-1.613977675907184
 20
-1.688330934619053
 30
0.0
 10
-1.61195333798522
 20
-1.688168295724105
 30
0.0
  0
SPLINE
  5
183
330
1F
100
AcDbEntity
  8
0
  6
Continuous
 62
     7
370
    25
100
AcDbSpline
210
0.0
220
0.0
230
1.0
 70
     8
 71
     3
 72
     9
 73
     5
 74
     0
 42
0.00000001
 43
0.00000001
 40
0.0
 40
0.0
 40
0.0
 40
0.0
 40
0.5601567125850515
 40
1.0
 40
1.0
 40
1.0
 40
1.0
 10
-1.600064436592601
 20
-1.752668548129909
 30
0.0
 10
-1.608624362580474
 20
-1.745731199911152
 30
0.0
 10
-1.623905668321451
 20
-1.733346543862415
 30
0.0
 10
-1.627537525074498
 20
-1.714204089018697
 30
0.0
 10
-1.629134972888179
 20
-1.705784408751044
 30
0.0
  0
SPLINE
  5
184
330
1F
100
AcDbEntity
  8
0
  6
Continuous
 62
     7
370
    25
100
AcDbSpline
210
0.0
220
0.0
230
1.0
 70
     8
 71
     3
 72
     9
 73
     5
 74
     0
 42
0.00000001
 43
0.00000001
 40
0.0
 40
0.0
 40
0.0
 40
0.0
 40
0.5602561785424123
 40
1.0
 40
1.0
 40
1.0
 40
1.0
 10
-1.55195585886433
 20
-1.764083473387278
 30
0.0
 10
-1.561394930767423
 20
-1.763735050601205
 30
0.0
 10
-1.578242709095633
 20
-1.763113151549634
 30
0.0
 10
-1.593399382923117
 20
-1.755858664144263
 30
0.0
 10
-1.600064436592601
 20
-1.752668548129909
 30
0.0
  0
SPLINE
  5
185
330
1F
100
AcDbEntity
  8
0
  6
Continuous
 62
     7
370
    25
100
AcDbSpline
210
0.0
220
0.0
230
1.0
 70
     8
 71
     3
 72
    10
 73
     6
 74
     0
 42
0.00000001
 43
0.00000001
 40
0.0
 40
0.0
 40
0.0
 40
0.0
 40
0.2799700218420878
 40
0.5598740230748773
 40
1.0
 40
1.0
 40
1.0
 40
1.0
 10
-1.473749796547439
 20
-1.701005149387236
 30
0.0
 10
-1.475224944694934
 20
-1.711588500471167
 30
0.0
 10
-1.478174893130611
 20
-1.732752706945803
 30
0.0
 10
-1.507971121419309
 20
-1.759895162768622
 30
0.0
 10
-1.535269459546232
 20
-1.762494562607976
 30
0.0
 10
-1.55195585886433
 20
-1.764083473387278
 30
0.0
  0
SPLINE
  5
186
330
1F
100
AcDbEntity
  8
0
  6
Continuous
 62
     7
370
    25
100
AcDbSpline
210
0.0
220
0.0
230
1.0
 70
     8
 71
     3
 72
    11
 73
     7
 74
     0
 42
0.00000001
 43
0.00000001
 40
0.0
 40
0.0
 40
0.0
 40
0.0
 40
0.281279808614634
 40
0.5614528554503249
 40
0.7803774103685153
 40
1.0
 40
1.0
 40
1.0
 40
1.0
 10
-1.546386639275102
 20
-1.63962523987185
 30
0.0
 10
-1.536918024145484
 20
-1.641999812175127
 30
0.0
 10
-1.518018050386731
 20
-1.646739613466642
 30
0.0
 10
-1.492651502263252
 20
-1.657477919090272
 30
0.0
 10
-1.475576267320314
 20
-1.677720581968526
 30
0.0
 10
-1.474359265838099
 20
-1.693235395280708
 30
0.0
 10
-1.473749796547439
 20
-1.701005149387236
 30
0.0
  0
SPLINE
  5
188
330
1F
100
AcDbEntity
  8
0
  6
Continuous
 62
     7
370
    25
100
AcDbSpline
210
0.0
220
0.0
230
1.0
 70
     8
 71
     3
 72
    10
 73
     6
 74
     0
 42
0.00000001
 43
0.00000001
 40
0.0
 40
0.0
 40
0.0
 40
0.0
 40
0.2779065239052848
 40
0.5578770586788454
 40
1.0
 40
1.0
 40
1.0
 40
1.0
 10
-1.858420928317252
 20
-1.764083473387276
 30
0.0
 10
-1.862144792522553
 20
-1.763574642446764
 30
0.0
 10
-1.869620178060754
 20
-1.762553201479965
 30
0.0
 10
-1.878706744699916
 20
-1.752208445037026
 30
0.0
 10
-1.883420431235001
 20
-1.744115420357546
 30
0.0
 10
-1.886306524274685
 20
-1.739160228275175
 30
0.0
  0
SPLINE
  5
189
330
1F
100
AcDbEntity
  8
0
  6
Continuous
 62
     7
370
    25
100
AcDbSpline
210
0.0
220
0.0
230
1.0
 70
     8
 71
     3
 72
    11
 73
     7
 74
     0
 42
0.00000001
 43
0.00000001
 40
0.0
 40
0.0
 40
0.0
 40
0.0
 40
0.2791385251216337
 40
0.5586946497019339
 40
0.7791788307952554
 40
1.0
 40
1.0
 40
1.0
 40
1.0
 10
-1.839343388873281
 20
-1.748402762912624
 30
0.0
 10
-1.839842907417508
 20
-1.750940419277002
 30
0.0
 10
-1.840842691800422
 20
-1.756019528414453
 30
0.0
 10
-1.846330300464754
 20
-1.761060239745335
 30
0.0
 10
-1.852391507022488
 20
-1.763705987224614
 30
0.0
 10
-1.856410098331259
 20
-1.763957580626086
 30
0.0
 10
-1.858420928317252
 20
-1.764083473387276
 30
0.0
  0
SPLINE
  5
18A
330
1F
100
AcDbEntity
  8
0
  6
Continuous
 62
     7
370
    25
100
AcDbSpline
210
0.0
220
0.0
230
1.0
 70
     8
 71
     3
 72
    10
 73
     6
 74
     0
 42
0.00000001
 43
0.00000001
 40
0.0
 40
0.0
 40
0.0
 40
0.0
 40
0.5580640947444518
 40
0.7795016635752523
 40
1.0
 40
1.0
 40
1.0
 40
1.0
 10
-1.8928631941457
 20
-1.673554031553779
 30
0.0
 10
-1.879708409568304
 20
-1.685178524673114
 30
0.0
 10
-1.861333859837148
 20
-1.701415569503763
 30
0.0
 10
-1.84563437534724
 20
-1.72870400099006
 30
0.0
 10
-1.841437411139492
 20
-1.741845818901797
 30
0.0
 10
-1.839343388873281
 20
-1.748402762912624
 30
0.0
  0
SPLINE
  5
18B
330
1F
100
AcDbEntity
  8
0
  6
Continuous
 62
     7
370
    25
100
AcDbSpline
210
0.0
220
0.0
230
1.0
 70
     8
 71
     3
 72
    10
 73
     6
 74
     0
 42
0.00000001
 43
0.00000001
 40
0.0
 40
0.0
 40
0.0
 40
0.0
 40
0.2805611414278374
 40
0.5598508514387168
 40
1.0
 40
1.0
 40
1.0
 40
1.0
 10
-1.842819213865148
 20
-1.620429206394068
 30
0.0
 10
-1.843442770206511
 20
-1.627982025292848
 30
0.0
 10
-1.844687057091202
 20
-1.643053435644707
 30
0.0
 10
-1.862527420842222
 20
-1.66508362280872
 30
0.0
 10
-1.881348531430723
 20
-1.670338886886734
 30
0.0
 10
-1.8928631941457
 20
-1.673554031553779
 30
0.0
  0
SPLINE
  5
18C
330
1F
100
AcDbEntity
  8
0
  6
Continuous
 62
     7
370
    25
100
AcDbSpline
210
0.0
220
0.0
230
1.0
 70
     8
 71
     3
 72
    10
 73
     6
 74
     0
 42
0.00000001
 43
0.00000001
 40
0.0
 40
0.0
 40
0.0
 40
0.0
 40
0.2806863160720487
 40
0.5613400843806113
 40
1.0
 40
1.0
 40
1.0
 40
1.0
 10
-1.873706658679186
 20
-1.57275510678978
 30
0.0
 10
-1.86873453757031
 20
-1.575417244424993
 30
0.0
 10
-1.858790871908709
 20
-1.580741210999833
 30
0.0
 10
-1.845849306417182
 20
-1.597030476023219
 30
0.0
 10
-1.843967063992054
 20
-1.61156537297499
 30
0.0
 10
-1.842819213865148
 20
-1.620429206394068
 30
0.0
  0
SPLINE
  5
18D
330
1F
100
AcDbEntity
  8
0
  6
Continuous
 62
     7
370
    25
100
AcDbSpline
210
0.0
220
0.0
230
1.0
 70
     8
 71
     3
 72
     9
 73
     5
 74
     0
 42
0.00000001
 43
0.00000001
 40
0.0
 40
0.0
 40
0.0
 40
0.0
 40
0.5608088895473249
 40
1.0
 40
1.0
 40
1.0
 40
1.0
 10
-1.912730693815091
 20
-1.566909401121649
 30
0.0
 10
-1.905244024138179
 20
-1.566831524134126
 30
0.0
 10
-1.891894254160469
 20
-1.566692658668589
 30
0.0
 10
-1.879256880743424
 20
-1.570905058312501
 30
0.0
 10
-1.873706658679186
 20
-1.57275510678978
 30
0.0
  0
SPLINE
  5
18F
330
1F
100
AcDbEntity
  8
0
  6
Continuous
 62
     7
370
    25
100
AcDbSpline
210
0.0
220
0.0
230
1.0
 70
     8
 71
     3
 72
    11
 73
     7
 74
     0
 42
0.00000001
 43
0.00000001
 40
0.0
 40
0.0
 40
0.0
 40
0.0
 40
0.281076093395933
 40
0.5586279370242189
 40
0.7788741719742905
 40
1.0
 40
1.0
 40
1.0
 40
1.0
 10
-1.999547322589101
 20
-1.590963689985783
 30
0.0
 10
-1.999418353702366
 20
-1.587294176076359
 30
0.0
 10
-1.999162032994808
 20
-1.580001158159621
 30
0.0
 10
-1.993464973172883
 20
-1.570672210987577
 30
0.0
 10
-1.984359106226685
 20
-1.567263880938562
 30
0.0
 10
-1.97863651671954
 20
-1.567027717940614
 30
0.0
 10
-1.975769519803861
 20
-1.566909401121651
 30
0.0
  0
SPLINE
  5
191
330
1F
100
AcDbEntity
  8
0
  6
Continuous
 62
     7
370
    25
100
AcDbSpline
210
0.0
220
0.0
230
1.0
 70
     8
 71
     3
 72
    10
 73
     6
 74
     0
 42
0.00000001
 43
0.00000001
 40
0.0
 40
0.0
 40
0.0
 40
0.0
 40
0.2802902055104885
 40
0.559609509266801
 40
0.9999999999999999
 40
0.9999999999999999
 40
0.9999999999999999
 40
0.9999999999999999
 10
-1.980509281156403
 20
-1.764083473387281
 30
0.0
 10
-1.983798049138569
 20
-1.763742236483092
 30
0.0
 10
-1.990364193086554
 20
-1.763060944690719
 30
0.0
 10
-1.998718920552875
 20
-1.753751220849344
 30
0.0
 10
-1.999232849449232
 20
-1.745311775783863
 30
0.0
 10
-1.999547322589102
 20
-1.740147678556952
 30
0.0
  0
SPLINE
  5
192
330
1F
100
AcDbEntity
  8
0
  6
Continuous
 62
     7
370
    25
100
AcDbSpline
210
0.0
220
0.0
230
1.0
 70
     8
 71
     3
 72
    11
 73
     7
 74
     0
 42
0.00000001
 43
0.00000001
 40
0.0
 40
0.0
 40
0.0
 40
0.0
 40
0.280937692942781
 40
0.5600479432911233
 40
0.7799354659624279
 40
1.0
 40
1.0
 40
1.0
 40
1.0
 10
-1.961629231768789
 20
-1.740226674579499
 30
0.0
 10
-1.961757767159116
 20
-1.743449604398353
 30
0.0
 10
-1.96201400184318
 20
-1.749874499532621
 30
0.0
 10
-1.965882982870568
 20
-1.758325094546986
 30
0.0
 10
-1.972895263608603
 20
-1.763359137580681
 30
0.0
 10
-1.977970594633515
 20
-1.763841963364653
 30
0.0
 10
-1.980509281156403
 20
-1.764083473387281
 30
0.0
  0
SPLINE
  5
195
330
1F
100
AcDbEntity
  8
0
  6
Continuous
 62
     7
370
    25
100
AcDbSpline
210
0.0
220
0.0
230
1.0
 70
     8
 71
     3
 72
    10
 73
     6
 74
     0
 42
0.00000001
 43
0.00000001
 40
0.0
 40
0.0
 40
0.0
 40
0.0
 40
0.560122963573023
 40
0.7794573935007434
 40
1.0
 40
1.0
 40
1.0
 40
1.0
 10
-1.9021847248057
 20
-1.713052042824939
 30
0.0
 10
-1.907950538384213
 20
-1.702920630617671
 30
0.0
 10
-1.915974144477151
 20
-1.688821933250964
 30
0.0
 10
-1.934392193545122
 20
-1.678550684492372
 30
0.0
 10
-1.94343106896537
 20
-1.678274348402005
 30
0.0
 10
-1.947962919868968
 20
-1.678135800861232
 30
0.0
  0
SPLINE
  5
197
330
1F
100
AcDbEntity
  8
0
  6
Continuous
 62
     7
370
    25
100
AcDbSpline
210
0.0
220
0.0
230
1.0
 70
     8
 71
     3
 72
    10
 73
     6
 74
     0
 42
0.00000001
 43
0.00000001
 40
0.0
 40
0.0
 40
0.0
 40
0.0
 40
0.2809040747163917
 40
0.5616273495895797
 40
0.9999999999999999
 40
0.9999999999999999
 40
0.9999999999999999
 40
0.9999999999999999
 10
-1.883265177406814
 20
-1.62347055326195
 30
0.0
 10
-1.883489420178944
 20
-1.620703492887031
 30
0.0
 10
-1.883937761392589
 20
-1.615171153115566
 30
0.0
 10
-1.888608151953275
 20
-1.606047081056144
 30
0.0
 10
-1.894834326090746
 20
-1.602369277728791
 30
0.0
 10
-1.898629903791292
 20
-1.600127228600695
 30
0.0
  0
SPLINE
  5
198
330
1F
100
AcDbEntity
  8
0
  6
Continuous
 62
     7
370
    25
100
AcDbSpline
210
0.0
220
0.0
230
1.0
 70
     8
 71
     3
 72
    12
 73
     8
 74
     0
 42
0.00000001
 43
0.00000001
 40
0.0
 40
0.0
 40
0.0
 40
0.0
 40
0.4993251782749535
 40
0.6245744621304963
 40
0.7495976514945308
 40
0.8746756369578992
 40
1.0
 40
1.0
 40
1.0
 40
1.0
 10
-1.92667349179381
 20
-1.650329200926335
 30
0.0
 10
-1.916789131677406
 20
-1.650145488282022
 30
0.0
 10
-1.904425407251301
 20
-1.649915693689238
 30
0.0
 10
-1.89143312415549
 20
-1.643058153071068
 30
0.0
 10
-1.886323804312227
 20
-1.637682046965654
 30
0.0
 10
-1.883607525018096
 20
-1.630753869536098
 30
0.0
 10
-1.88337936810714
 20
-1.625899917331202
 30
0.0
 10
-1.883265177406814
 20
-1.62347055326195
 30
0.0
  0
SPLINE
  5
19B
330
1F
100
AcDbEntity
  8
0
  6
Continuous
 62
     7
370
    25
100
AcDbSpline
210
0.0
220
0.0
230
1.0
 70
     8
 71
     3
 72
     9
 73
     5
 74
     0
 42
0.00000001
 43
0.00000001
 40
0.0
 40
0.0
 40
0.0
 40
0.0
 40
0.5591191428380966
 40
1.0
 40
1.0
 40
1.0
 40
1.0
 10
-1.898629903791291
 20
-1.600127228600694
 30
0.0
 10
-1.903606878096376
 20
-1.599073018175287
 30
0.0
 10
-1.912508333839462
 20
-1.597187533768411
 30
0.0
 10
-1.921599100494403
 20
-1.597226634856617
 30
0.0
 10
-1.925607045489492
 20
-1.5972438737779
 30
0.0
  0
SPLINE
  5
19D
330
1F
100
AcDbEntity
  8
0
  6
Continuous
 62
     7
370
    25
100
AcDbSpline
210
0.0
220
0.0
230
1.0
 70
     8
 71
     3
 72
    11
 73
     7
 74
     0
 42
0.00000001
 43
0.00000001
 40
0.0
 40
0.0
 40
0.0
 40
0.0
 40
0.2816051632580326
 40
0.5598872163645583
 40
0.7784865469071844
 40
1.0
 40
1.0
 40
1.0
 40
1.0
 10
1.804901123048923
 20
-1.663482038679619
 30
0.0
 10
1.804612405026055
 20
-1.653606956262134
 30
0.0
 10
1.804038376026486
 20
-1.633973323333926
 30
0.0
 10
1.790847632588997
 20
-1.607481368873438
 30
0.0
 10
1.766089322690942
 20
-1.597787144517767
 30
0.0
 10
1.750656665926659
 20
-1.59742576163371
 30
0.0
 10
1.742889245353199
 20
-1.597243873777887
 30
0.0
  0
SPLINE
  5
19E
330
1F
100
AcDbEntity
  8
0
  6
Continuous
 62
     7
370
    25
100
AcDbSpline
210
0.0
220
0.0
230
1.0
 70
     8
 71
     3
 72
     9
 73
     5
 74
     0
 42
0.00000001
 43
0.00000001
 40
0.0
 40
0.0
 40
0.0
 40
0.0
 40
0.5617745835208229
 40
1.0
 40
1.0
 40
1.0
 40
1.0
 10
1.746799548469049
 20
-1.731221128009662
 30
0.0
 10
1.754433591492163
 20
-1.73143307482194
 30
0.0
 10
1.768022748508255
 20
-1.731810355707361
 30
0.0
 10
1.779658190769691
 20
-1.724946855568009
 30
0.0
 10
1.784757137300628
 20
-1.721939095360935
 30
0.0
  0
SPLINE
  5
1A2
330
1F
100
AcDbEntity
  8
0
  6
Continuous
 62
     7
370
    25
100
AcDbSpline
210
0.0
220
0.0
230
1.0
 70
     8
 71
     3
 72
    10
 73
     6
 74
     0
 42
0.00000001
 43
0.00000001
 40
0.0
 40
0.0
 40
0.0
 40
0.0
 40
0.279393375929132
 40
0.5595561248230261
 40
1.0
 40
1.0
 40
1.0
 40
1.0
 10
1.784757137300628
 20
-1.721939095360935
 30
0.0
 10
1.788816432304369
 20
-1.717541095465393
 30
0.0
 10
1.796946200500388
 20
-1.70873298478511
 30
0.0
 10
1.803720061644378
 20
-1.688095118583225
 30
0.0
 10
1.804453088047709
 20
-1.672818997149391
 30
0.0
 10
1.804901123048923
 20
-1.663482038679619
 30
0.0
  0
SPLINE
  5
1A3
330
1F
100
AcDbEntity
  8
0
  6
Continuous
 62
     7
370
    25
100
AcDbSpline
210
0.0
220
0.0
230
1.0
 70
     8
 71
     3
 72
    11
 73
     7
 74
     0
 42
0.00000001
 43
0.00000001
 40
0.0
 40
0.0
 40
0.0
 40
0.0
 40
0.2809809049202058
 40
0.5605641460528448
 40
0.7802287595324477
 40
1.0
 40
1.0
 40
1.0
 40
1.0
 10
-0.4095153808573381
 20
-1.662415592375305
 30
0.0
 10
-0.4089461124256852
 20
-1.671909118416208
 30
0.0
 10
-0.4078104072347756
 20
-1.690848947511219
 30
0.0
 10
-0.396284181239723
 20
-1.715411544590127
 30
0.0
 10
-0.3764669216344331
 20
-1.731295745480629
 30
0.0
 10
-0.3615039674552432
 20
-1.732931116709246
 30
0.0
 10
-0.35402067502136
 20
-1.73374900073102
 30
0.0
  0
SPLINE
  5
1A4
330
1F
100
AcDbEntity
  8
0
  6
Continuous
 62
     7
370
    25
100
AcDbSpline
210
0.0
220
0.0
230
1.0
 70
     8
 71
     3
 72
    11
 73
     7
 74
     0
 42
0.00000001
 43
0.00000001
 40
0.0
 40
0.0
 40
0.0
 40
0.0
 40
0.1870797274150672
 40
0.3739672245637858
 40
0.5610005093172993
 40
1.0
 40
1.0
 40
1.0
 40
1.0
 10
-0.354573647179155
 20
-1.592188128335182
 30
0.0
 10
-0.3608292798650819
 20
-1.592760872731199
 30
0.0
 10
-0.3733341173788562
 20
-1.593905773010467
 30
0.0
 10
-0.3897845164985319
 20
-1.60397435884796
 30
0.0
 10
-0.4063785813082693
 20
-1.626155131903485
 30
0.0
 10
-0.408222412138716
 20
-1.647469262404423
 30
0.0
 10
-0.4095153808573381
 20
-1.662415592375305
 30
0.0
  0
SPLINE
  5
1A5
330
1F
100
AcDbEntity
  8
0
  6
Continuous
 62
     7
370
    25
100
AcDbSpline
210
0.0
220
0.0
230
1.0
 70
     8
 71
     3
 72
    11
 73
     7
 74
     0
 42
0.00000001
 43
0.00000001
 40
0.0
 40
0.0
 40
0.0
 40
0.0
 40
0.280992058836264
 40
0.5604140669734824
 40
0.7798950147652475
 40
1.0
 40
1.0
 40
1.0
 40
1.0
 10
-0.2982889811177521
 20
-1.662415592375303
 30
0.0
 10
-0.2988269428651497
 20
-1.652924188866188
 30
0.0
 10
-0.2998998604841877
 20
-1.633994415320777
 30
0.0
 10
-0.3117958256379736
 20
-1.609493734897766
 30
0.0
 10
-0.3321418687688755
 20
-1.594368153535016
 30
0.0
 10
-0.3470893145635158
 20
-1.592915490803178
 30
0.0
 10
-0.354573647179155
 20
-1.592188128335182
 30
0.0
  0
SPLINE
  5
1A6
330
1F
100
AcDbEntity
  8
0
  6
Continuous
 62
     7
370
    25
100
AcDbSpline
210
0.0
220
0.0
230
1.0
 70
     8
 71
     3
 72
    10
 73
     6
 74
     0
 42
0.00000001
 43
0.00000001
 40
0.0
 40
0.0
 40
0.0
 40
0.0
 40
0.2799564539027412
 40
0.5595534802706436
 40
1.0
 40
1.0
 40
1.0
 40
1.0
 10
-0.35402067502136
 20
-1.73374900073102
 30
0.0
 10
-0.3444627260842292
 20
-1.732362674740854
 30
0.0
 10
-0.3253590993684874
 20
-1.729591802622087
 30
0.0
 10
-0.3015390809065781
 20
-1.702069210977229
 30
0.0
 10
-0.299522507524324
 20
-1.677465525866507
 30
0.0
 10
-0.2982889811177521
 20
-1.662415592375303
 30
0.0
  0
SPLINE
  5
1A7
330
1F
100
AcDbEntity
  8
0
  6
Continuous
 62
     7
370
    25
100
AcDbSpline
210
0.0
220
0.0
230
1.0
 70
     8
 71
     3
 72
     9
 73
     5
 74
     0
 42
0.00000001
 43
0.00000001
 40
0.0
 40
0.0
 40
0.0
 40
0.0
 40
0.5600733079177432
 40
1.0
 40
1.0
 40
1.0
 40
1.0
 10
-2.075383504229731
 20
-1.626195916039659
 30
0.0
 10
-2.075683419916153
 20
-1.62194045994486
 30
0.0
 10
-2.076218913542044
 20
-1.614342425839968
 30
0.0
 10
-2.080823116557646
 20
-1.608337969017558
 30
0.0
 10
-2.082848628359975
 20
-1.605696448189925
 30
0.0
  0
SPLINE
  5
1A8
330
1F
100
AcDbEntity
  8
0
  6
Continuous
 62
     7
370
    25
100
AcDbSpline
210
0.0
220
0.0
230
1.0
 70
     8
 71
     3
 72
    11
 73
     7
 74
     0
 42
0.00000001
 43
0.00000001
 40
0.0
 40
0.0
 40
0.0
 40
0.0
 40
0.4993361658803909
 40
0.624928982850042
 40
0.7504381094755289
 40
1.0
 40
1.0
 40
1.0
 40
1.0
 10
-2.117369890210964
 20
-1.655384946369044
 30
0.0
 10
-2.107367948303138
 20
-1.655051040409321
 30
0.0
 10
-2.094850322282675
 20
-1.654633150566694
 30
0.0
 10
-2.082617443035294
 20
-1.646425286403703
 30
0.0
 10
-2.076473353727888
 20
-1.638579398987041
 30
0.0
 10
-2.07581893582132
 20
-1.631143534677192
 30
0.0
 10
-2.075383504229731
 20
-1.626195916039658
 30
0.0
  0
SPLINE
  5
1AC
330
1F
100
AcDbEntity
  8
0
  6
Continuous
 62
     7
370
    25
100
AcDbSpline
210
0.0
220
0.0
230
1.0
 70
     8
 71
     3
 72
    10
 73
     6
 74
     0
 42
0.00000001
 43
0.00000001
 40
0.0
 40
0.0
 40
0.0
 40
0.0
 40
0.278649316652967
 40
0.5591090604552726
 40
0.9999999999999999
 40
0.9999999999999999
 40
0.9999999999999999
 40
0.9999999999999999
 10
-2.082848628359975
 20
-1.605696448189925
 30
0.0
 10
-2.085658448177385
 20
-1.603784274896759
 30
0.0
 10
-2.091296343640511
 20
-1.599947504628626
 30
0.0
 10
-2.103378933651944
 20
-1.597671570411417
 30
0.0
 10
-2.112062486086954
 20
-1.597406118501266
 30
0.0
 10
-2.117369890210969
 20
-1.597243873777899
 30
0.0
  0
SPLINE
  5
1AD
330
1F
100
AcDbEntity
  8
0
  6
Continuous
 62
     7
370
    25
100
AcDbSpline
210
0.0
220
0.0
230
1.0
 70
     8
 71
     3
 72
    10
 73
     6
 74
     0
 42
0.00000001
 43
0.00000001
 40
0.0
 40
0.0
 40
0.0
 40
0.0
 40
0.5604139127639035
 40
0.7801045525019358
 40
1.0
 40
1.0
 40
1.0
 40
1.0
 10
-1.113567431765745
 20
-1.64780132820498
 30
0.0
 10
-1.106025415958905
 20
-1.647732575202539
 30
0.0
 10
-1.095526817098394
 20
-1.647636869994332
 30
0.0
 10
-1.08303847534366
 20
-1.641743750298235
 30
0.0
 10
-1.079719153705434
 20
-1.63680368821597
 30
0.0
 10
-1.078058719632971
 20
-1.634332506361516
 30
0.0
  0
SPLINE
  5
1B1
330
1F
100
AcDbEntity
  8
0
  6
Continuous
 62
     7
370
    25
100
AcDbSpline
210
0.0
220
0.0
230
1.0
 70
     8
 71
     3
 72
    12
 73
     8
 74
     0
 42
0.00000001
 43
0.00000001
 40
0.0
 40
0.0
 40
0.0
 40
0.0
 40
0.125218812823588
 40
0.250125834874179
 40
0.3747348411194277
 40
0.4999012318854874
 40
1.0
 40
1.0
 40
1.0
 40
1.0
 10
-1.074622392652382
 20
-1.621772138777286
 30
0.0
 10
-1.074743124414944
 20
-1.619406027583917
 30
0.0
 10
-1.074984287321904
 20
-1.614679696737127
 30
0.0
 10
-1.077592700871305
 20
-1.607903100393467
 30
0.0
 10
-1.08286750034205
 20
-1.602842231582332
 30
0.0
 10
-1.096269294362372
 20
-1.5977621103936
 30
0.0
 10
-1.108184621476525
 20
-1.597474172161278
 30
0.0
 10
-1.117714722949214
 20
-1.597243873777894
 30
0.0
  0
SPLINE
  5
1B2
330
1F
100
AcDbEntity
  8
0
  6
Continuous
 62
     7
370
    25
100
AcDbSpline
210
0.0
220
0.0
230
1.0
 70
     8
 71
     3
 72
     9
 73
     5
 74
     0
 42
0.00000001
 43
0.00000001
 40
0.0
 40
0.0
 40
0.0
 40
0.0
 40
0.559719833820325
 40
0.9999999999999999
 40
0.9999999999999999
 40
0.9999999999999999
 40
0.9999999999999999
 10
-1.078058719632971
 20
-1.634332506361516
 30
0.0
 10
-1.076940716388379
 20
-1.632110970315223
 30
0.0
 10
-1.074943282713462
 20
-1.628141955976153
 30
0.0
 10
-1.074720485740613
 20
-1.623719332275263
 30
0.0
 10
-1.074622392652382
 20
-1.621772138777286
 30
0.0
  0
SPLINE
  5
1B3
330
1F
100
AcDbEntity
  8
0
  6
Continuous
 62
     7
370
    25
100
AcDbSpline
210
0.0
220
0.0
230
1.0
 70
     8
 71
     3
 72
     9
 73
     5
 74
     0
 42
0.00000001
 43
0.00000001
 40
0.0
 40
0.0
 40
0.0
 40
0.0
 40
0.560073307917806
 40
1.0
 40
1.0
 40
1.0
 40
1.0
 10
0.3867645263692246
 20
-1.626195916039651
 30
0.0
 10
0.3864646106828039
 20
-1.621940459944851
 30
0.0
 10
0.3859291170569144
 20
-1.614342425839957
 30
0.0
 10
0.3813249140413074
 20
-1.60833796901755
 30
0.0
 10
0.3792994022389764
 20
-1.605696448189918
 30
0.0
  0
SPLINE
  5
1B4
330
1F
100
AcDbEntity
  8
0
  6
Continuous
 62
     7
370
    25
100
AcDbSpline
210
0.0
220
0.0
230
1.0
 70
     8
 71
     3
 72
    11
 73
     7
 74
     0
 42
0.00000001
 43
0.00000001
 40
0.0
 40
0.0
 40
0.0
 40
0.0
 40
0.499336165880349
 40
0.6249289828499762
 40
0.7504381094756012
 40
1.0
 40
1.0
 40
1.0
 40
1.0
 10
0.3447781403879845
 20
-1.655384946369038
 30
0.0
 10
0.3547800822958103
 20
-1.655051040409314
 30
0.0
 10
0.3672977083162734
 20
-1.654633150566685
 30
0.0
 10
0.3795305875636559
 20
-1.646425286403695
 30
0.0
 10
0.385674676871067
 20
-1.638579398987035
 30
0.0
 10
0.3863290947776359
 20
-1.631143534677183
 30
0.0
 10
0.3867645263692246
 20
-1.626195916039651
 30
0.0
  0
SPLINE
  5
1B8
330
1F
100
AcDbEntity
  8
0
  6
Continuous
 62
     7
370
    25
100
AcDbSpline
210
0.0
220
0.0
230
1.0
 70
     8
 71
     3
 72
    10
 73
     6
 74
     0
 42
0.00000001
 43
0.00000001
 40
0.0
 40
0.0
 40
0.0
 40
0.0
 40
0.2786493166529416
 40
0.5591090604552438
 40
1.0
 40
1.0
 40
1.0
 40
1.0
 10
0.3792994022389764
 20
-1.605696448189918
 30
0.0
 10
0.3764895824215669
 20
-1.603784274896752
 30
0.0
 10
0.3708516869584424
 20
-1.599947504628617
 30
0.0
 10
0.3587690969470094
 20
-1.59767157041141
 30
0.0
 10
0.3500855445120002
 20
-1.59740611850126
 30
0.0
 10
0.3447781403879849
 20
-1.597243873777893
 30
0.0
  0
SPLINE
  5
1B9
330
1F
100
AcDbEntity
  8
0
  6
Continuous
 62
     7
370
    25
100
AcDbSpline
210
0.0
220
0.0
230
1.0
 70
     8
 71
     3
 72
    11
 73
     7
 74
     0
 42
0.00000001
 43
0.00000001
 40
0.0
 40
0.0
 40
0.0
 40
0.0
 40
0.499393612320079
 40
0.6250428925943797
 40
0.7505590582329401
 40
1.0
 40
1.0
 40
1.0
 40
1.0
 10
-1.107247749962358
 20
-1.73122112800967
 30
0.0
 10
-1.097672062504205
 20
-1.730764671253701
 30
0.0
 10
-1.085687096658092
 20
-1.730193368289354
 30
0.0
 10
-1.073990754655251
 20
-1.722300926509258
 30
0.0
 10
-1.067992029040348
 20
-1.714875496670031
 30
0.0
 10
-1.067253557819235
 20
-1.707755884046352
 30
0.0
 10
-1.066762288409418
 20
-1.70301954796206
 30
0.0
  0
SPLINE
  5
1BD
330
1F
100
AcDbEntity
  8
0
  6
Continuous
 62
     7
370
    25
100
AcDbSpline
210
0.0
220
0.0
230
1.0
 70
     8
 71
     3
 72
    11
 73
     7
 74
     0
 42
0.00000001
 43
0.00000001
 40
0.0
 40
0.0
 40
0.0
 40
0.0
 40
0.2489237074085542
 40
0.374338543480573
 40
0.4999480829025411
 40
0.9999999999999999
 40
0.9999999999999999
 40
0.9999999999999999
 40
0.9999999999999999
 10
-1.066762288409418
 20
-1.70301954796206
 30
0.0
 10
-1.067270495251278
 20
-1.698206810967783
 30
0.0
 10
-1.068034751138953
 20
-1.690969280339028
 30
0.0
 10
-1.074404946063901
 20
-1.683603562252477
 30
0.0
 10
-1.086852029603484
 20
-1.676503784445665
 30
0.0
 10
-1.09893417898196
 20
-1.676005875498102
 30
0.0
 10
-1.108590682345576
 20
-1.675607928139872
 30
0.0
  0
LWPOLYLINE
  5
1CF
330
1F
100
AcDbEntity
  8
0
  6
Continuous
 62
     7
370
    25
100
AcDbPolyline
 90
        3
 70
   128
 43
0.0
 10
-0.0238405376
 20
0.3887643408
 10
0.0
 20
0.3899704724
 10
0.0238405376
 20
0.3887643408
  0
SPLINE
  5
1D0
330
1F
100
AcDbEntity
  8
0
  6
Continuous
 62
     7
370
    25
100
AcDbSpline
210
0.0
220
0.0
230
1.0
 70
     8
 71
     3
 72
    11
 73
     7
 74
     0
 42
0.00000001
 43
0.00000001
 40
0.0
 40
0.0
 40
0.0
 40
0.0
 40
0.043707545149234
 40
0.4364179222361236
 40
0.8291282993232214
 40
1.0
 40
1.0
 40
1.0
 40
1.0
 10
0.0343408477361533
 20
-0.3948266976846765
 30
0.0
 10
0.0333630687880824
 20
-0.3948991567657194
 30
0.0
 10
0.0235999888560853
 20
-0.3956226575134261
 30
0.0
 10
-0.0001514801616569
 20
-0.3969971999277985
 30
0.0
 10
-0.0268079920723188
 20
-0.3985825571527538
 30
0.0
 10
-0.0391984634203773
 20
-0.3995168727110378
 30
0.0
 10
-0.0429551139509086
 20
-0.399800146602653
 30
0.0
  0
SPLINE
  5
1D1
330
1F
100
AcDbEntity
  8
0
  6
Continuous
 62
     7
370
    25
100
AcDbSpline
210
0.0
220
0.0
230
1.0
 70
     8
 71
     3
 72
    10
 73
     6
 74
     0
 42
0.00000001
 43
0.00000001
 40
0.0
 40
0.0
 40
0.0
 40
0.0
 40
0.3794311214807632
 40
0.8436047305847333
 40
1.0
 40
1.0
 40
1.0
 40
1.0
 10
-0.0256511014090885
 20
-0.4025000000000428
 30
0.0
 10
-0.0172227721823695
 20
-0.4019678166426353
 30
0.0
 10
0.0015162768941469
 20
-0.400784591618564
 30
0.0
 10
0.025874650108413
 20
-0.3993820093650649
 30
0.0
 10
0.0374309552985967
 20
-0.3985116104689863
 30
0.0
 10
0.0403433660336893
 20
-0.3982922532395747
 30
0.0
  0
SPLINE
  5
1D2
330
1F
100
AcDbEntity
  8
0
  6
Continuous
 62
     7
370
    25
100
AcDbSpline
210
0.0
220
0.0
230
1.0
 70
    24
 71
     3
 72
     9
 73
     5
 74
     0
 42
0.00000001
 43
0.00000001
 40
0.0
 40
0.0
 40
0.0
 40
0.0
 40
0.4283661914685692
 40
1.0
 40
1.0
 40
1.0
 40
1.0
 10
0.0155718549500185
 20
-0.3839904146471835
 30
0.0
 10
0.0103812366347778
 20
-0.3844197597407237
 30
0.0
 10
-0.00173600888697
 20
-0.3854220449399088
 30
0.0
 10
-0.013853254409207
 20
-0.3864243301390994
 30
0.0
 10
-0.0207798816159938
 20
-0.3869972702447474
 30
0.0
  0
SPLINE
  5
1D4
330
1F
100
AcDbEntity
  8
0
  6
Continuous
 62
     7
370
    25
100
AcDbSpline
210
0.0
220
0.0
230
1.0
 70
    24
 71
     3
 72
     9
 73
     5
 74
     0
 42
0.00000001
 43
0.00000001
 40
0.0
 40
0.0
 40
0.0
 40
0.0
 40
0.4283661914024999
 40
1.0
 40
1.0
 40
1.0
 40
1.0
 10
0.0096538849424933
 20
-0.3805736730702824
 30
0.0
 10
0.0064359232963807
 20
-0.3808398486894578
 30
0.0
 10
-0.001076251358619
 20
-0.3814612227019676
 30
0.0
 10
-0.0085884260139173
 20
-0.3820825967144776
 30
0.0
 10
-0.0128826390229751
 20
-0.3824377951078122
 30
0.0
  0
SPLINE
  5
1D5
330
1F
100
AcDbEntity
  8
0
  6
Continuous
 62
     7
370
    25
100
AcDbSpline
210
0.0
220
0.0
230
1.0
 70
     8
 71
     3
 72
    12
 73
     8
 74
     0
 42
0.00000001
 43
0.00000001
 40
0.0
 40
0.0
 40
0.0
 40
0.0
 40
0.2520529095701912
 40
0.5049541893046346
 40
0.6971627199577429
 40
0.8545355143773483
 40
1.0
 40
1.0
 40
1.0
 40
1.0
 10
9.071152072747683
 20
-0.0235235296758102
 30
0.0
 10
9.071395583105636
 20
-0.0237142838539463
 30
0.0
 10
9.071883423438832
 20
-0.0240964342585635
 30
0.0
 10
9.072355273340829
 20
-0.0249324096130015
 30
0.0
 10
9.072540181052478
 20
-0.0258221217296409
 30
0.0
 10
9.072490695919376
 20
-0.026644015558945
 30
0.0
 10
9.072299832429495
 20
-0.0271202889463824
 30
0.0
 10
9.072208153296145
 20
-0.0273490615179419
 30
0.0
  0
SPLINE
  5
1D7
330
1F
100
AcDbEntity
  8
0
  6
Continuous
 62
     7
370
    25
100
AcDbSpline
210
0.0
220
0.0
230
1.0
 70
     8
 71
     3
 72
    15
 73
    11
 74
     0
 42
0.00000001
 43
0.00000001
 40
0.0
 40
0.0
 40
0.0
 40
0.0
 40
0.1883858441808667
 40
0.3177585680802005
 40
0.4226043769228239
 40
0.5054293728961312
 40
0.5883277728747033
 40
0.6988380094249691
 40
0.8752813743667585
 40
1.0
 40
1.0
 40
1.0
 40
1.0
 10
9.067411835037966
 20
0.0296021134687495
 30
0.0
 10
9.064992259078783
 20
0.0273009867536155
 30
0.0
 10
9.060911055443261
 20
0.0234195765916604
 30
0.0
 10
9.057144710008496
 20
0.0158567531572107
 30
0.0
 10
9.05541950622517
 20
0.0089524263462787
 30
0.0
 10
9.055197273115997
 20
0.0023349137399552
 30
0.0
 10
9.056251868453373
 20
-0.0042968421918797
 30
0.0
 10
9.05923191809902
 20
-0.0119084262777884
 30
0.0
 10
9.063994024400651
 20
-0.0183225219895161
 30
0.0
 10
9.068250025125847
 20
-0.021473956711641
 30
0.0
 10
9.070012540243132
 20
-0.0227790437399405
 30
0.0
  0
SPLINE
  5
1D9
330
1F
100
AcDbEntity
  8
0
  6
Continuous
 62
     7
370
    25
100
AcDbSpline
210
0.0
220
0.0
230
1.0
 70
     8
 71
     3
 72
    12
 73
     8
 74
     0
 42
0.00000001
 43
0.00000001
 40
0.0
 40
0.0
 40
0.0
 40
0.0
 40
0.1495672850720701
 40
0.302446722628447
 40
0.4992665505824646
 40
0.7660320681534796
 40
1.0
 40
1.0
 40
1.0
 40
1.0
 10
9.069143966456675
 20
0.0343671423163003
 30
0.0
 10
9.06926069534714
 20
0.0341420619747275
 30
0.0
 10
9.069496738077602
 20
0.0336869169100565
 30
0.0
 10
9.069625962098838
 20
0.0328684214958845
 30
0.0
 10
9.069525012127079
 20
0.0319443355961316
 30
0.0
 10
9.069125245447088
 20
0.0310747429692817
 30
0.0
 10
9.068680040405964
 20
0.0306529141731826
 30
0.0
 10
9.06847201814813
 20
0.0304558144764649
 30
0.0
  0
SPLINE
  5
1DD
330
1F
100
AcDbEntity
  8
0
  6
Continuous
 62
     7
370
    25
100
AcDbSpline
210
0.0
220
0.0
230
1.0
 70
     8
 71
     3
 72
    12
 73
     8
 74
     0
 42
0.00000001
 43
0.00000001
 40
0.0
 40
0.0
 40
0.0
 40
0.0
 40
0.29384533852308
 40
0.5348029578150786
 40
0.7207603937754664
 40
0.8751765898925801
 40
1.0
 40
1.0
 40
1.0
 40
1.0
 10
9.044359405848484
 20
0.0604004719970708
 30
0.0
 10
9.044662470129827
 20
0.0605989573900193
 30
0.0
 10
9.045214051702924
 20
0.0609602038054479
 30
0.0
 10
9.046210808668148
 20
0.0611113022264135
 30
0.0
 10
9.047090232621533
 20
0.0609781680229774
 30
0.0
 10
9.047804447928698
 20
0.0606653288670351
 30
0.0
 10
9.04816353396322
 20
0.0603594440620776
 30
0.0
 10
9.048324049672134
 20
0.0602227099326642
 30
0.0
  0
SPLINE
  5
1DF
330
1F
100
AcDbEntity
  8
0
  6
Continuous
 62
     7
370
    25
100
AcDbSpline
210
0.0
220
0.0
230
1.0
 70
     8
 71
     3
 72
    15
 73
    11
 74
     0
 42
0.00000001
 43
0.00000001
 40
0.0
 40
0.0
 40
0.0
 40
0.0
 40
0.2256928926760646
 40
0.3428909870225973
 40
0.4410979036919103
 40
0.5228540960583711
 40
0.6045346451410872
 40
0.7230773741124051
 40
0.9158357597607862
 40
0.9999999999999999
 40
0.9999999999999999
 40
0.9999999999999999
 40
0.9999999999999999
 10
8.99267811973819
 20
0.073260021119513
 30
0.0
 10
8.994459949497578
 20
0.0696552589321979
 30
0.0
 10
8.997167050096358
 20
0.0641786112197497
 30
0.0
 10
9.004000659495766
 20
0.0582095622245596
 30
0.0
 10
9.009958184254225
 20
0.0548651655040731
 30
0.0
 10
9.016105177739623
 20
0.0529244002271016
 30
0.0
 10
9.022816244412976
 20
0.0521276517703853
 30
0.0
 10
9.031264659432022
 20
0.0529810643351816
 30
0.0
 10
9.038214600344068
 20
0.0557879077575076
 30
0.0
 10
9.042114069189813
 20
0.0586706331462093
 30
0.0
 10
9.043299222738344
 20
0.0595467709893369
 30
0.0
  0
SPLINE
  5
1E1
330
1F
100
AcDbEntity
  8
0
  6
Continuous
 62
     7
370
    25
100
AcDbSpline
210
0.0
220
0.0
230
1.0
 70
     8
 71
     3
 72
    12
 73
     8
 74
     0
 42
0.00000001
 43
0.00000001
 40
0.0
 40
0.0
 40
0.0
 40
0.0
 40
0.1510917194795721
 40
0.3040926146879705
 40
0.5014278081238343
 40
0.7690216267658497
 40
1.0
 40
1.0
 40
1.0
 40
1.0
 10
8.988681566047255
 20
0.0763798508849355
 30
0.0
 10
8.988934337808908
 20
0.0764215520718992
 30
0.0
 10
8.989443075324017
 20
0.0765054813767154
 30
0.0
 10
8.990264106755737
 20
0.0763727233907313
 30
0.0
 10
8.99111181101665
 20
0.0759881867319718
 30
0.0
 10
8.991810596155904
 20
0.0753390533586494
 30
0.0
 10
8.992072487491702
 20
0.0747876002996412
 30
0.0
 10
8.992193816430005
 20
0.0745321232943846
 30
0.0
  0
SPLINE
  5
1E5
330
1F
100
AcDbEntity
  8
0
  6
Continuous
 62
     7
370
    25
100
AcDbSpline
210
0.0
220
0.0
230
1.0
 70
     8
 71
     3
 72
    12
 73
     8
 74
     0
 42
0.00000001
 43
0.00000001
 40
0.0
 40
0.0
 40
0.0
 40
0.0
 40
0.2972549323490938
 40
0.5372558238083228
 40
0.7227118685449445
 40
0.8769016642258743
 40
1.0
 40
1.0
 40
1.0
 40
1.0
 10
8.956263547787447
 20
0.0608530743065556
 30
0.0
 10
8.95616763672564
 20
0.0612069319061532
 30
0.0
 10
8.955994287956903
 20
0.0618464908688263
 30
0.0
 10
8.956163309013832
 20
0.0628444808639176
 30
0.0
 10
8.95656369680059
 20
0.0636369823302796
 30
0.0
 10
8.95708136349389
 20
0.0642151785784221
 30
0.0
 10
8.95748054196359
 20
0.0644600401501554
 30
0.0
 10
8.957657751875315
 20
0.0645687431509555
 30
0.0
  0
SPLINE
  5
1E7
330
1F
100
AcDbEntity
  8
0
  6
Continuous
 62
     7
370
    25
100
AcDbSpline
210
0.0
220
0.0
230
1.0
 70
     8
 71
     3
 72
    15
 73
    11
 74
     0
 42
0.00000001
 43
0.00000001
 40
0.0
 40
0.0
 40
0.0
 40
0.0
 40
0.2256228664149604
 40
0.3428418134434159
 40
0.4410613335056289
 40
0.5228188276051182
 40
0.6045009630499252
 40
0.7230260190002981
 40
0.9157500941990422
 40
1.0
 40
1.0
 40
1.0
 40
1.0
 10
8.928062994098708
 20
0.015675069599649
 30
0.0
 10
8.932040679854435
 20
0.0162554784908273
 30
0.0
 10
8.938084912070213
 20
0.0171374300410054
 30
0.0
 10
8.945872949211937
 20
0.0217905122685329
 30
0.0
 10
8.950895433321577
 20
0.0264228347694145
 30
0.0
 10
8.95464136646993
 20
0.0316691934785185
 30
0.0
 10
8.957473372907069
 20
0.0378052411124344
 30
0.0
 10
8.959273003147437
 20
0.0461030511993157
 30
0.0
 10
8.958752056073775
 20
0.053581252947269
 30
0.0
 10
8.957215301025682
 20
0.0581816300765371
 30
0.0
 10
8.95674785109564
 20
0.0595809721316673
 30
0.0
  0
SPLINE
  5
1E9
330
1F
100
AcDbEntity
  8
0
  6
Continuous
 62
     7
370
    25
100
AcDbSpline
210
0.0
220
0.0
230
1.0
 70
     8
 71
     3
 72
    12
 73
     8
 74
     0
 42
0.00000001
 43
0.00000001
 40
0.0
 40
0.0
 40
0.0
 40
0.0
 40
0.1516365002402027
 40
0.3046812393348918
 40
0.5022012835195531
 40
0.7700915977806981
 40
1.0
 40
1.0
 40
1.0
 40
1.0
 10
8.923860856661133
 20
0.0128382015862445
 30
0.0
 10
8.923899518198569
 20
0.0130924107302207
 30
0.0
 10
8.92397720032076
 20
0.0136031898428634
 30
0.0
 10
8.924358397605946
 20
0.0143436132153528
 30
0.0
 10
8.924987083464613
 20
0.0150306837135459
 30
0.0
 10
8.925819931131436
 20
0.0154930525198518
 30
0.0
 10
8.92642434599813
 20
0.0155713905456928
 30
0.0
 10
8.92670349508325
 20
0.0156075709731584
 30
0.0
  0
SPLINE
  5
1ED
330
1F
100
AcDbEntity
  8
0
  6
Continuous
 62
     7
370
    25
100
AcDbSpline
210
0.0
220
0.0
230
1.0
 70
     8
 71
     3
 72
    12
 73
     8
 74
     0
 42
0.00000001
 43
0.00000001
 40
0.0
 40
0.0
 40
0.0
 40
0.0
 40
0.2982712409787111
 40
0.5379875126760169
 40
0.7232943725888344
 40
0.8774171364892681
 40
1.0
 40
1.0
 40
1.0
 40
1.0
 10
8.92860998013685
 20
-0.0227912037557117
 30
0.0
 10
8.928242513261575
 20
-0.0227729003876383
 30
0.0
 10
8.927579718586598
 20
-0.0227398868680276
 30
0.0
 10
8.926682298036924
 20
-0.0222690940865918
 30
0.0
 10
8.92605327355096
 20
-0.0216430890009006
 30
0.0
 10
8.925664536199125
 20
-0.0209726561502912
 30
0.0
 10
8.925555365390698
 20
-0.0205183107812349
 30
0.0
 10
8.925507001826743
 20
-0.0203170320545142
 30
0.0
  0
SPLINE
  5
1EF
330
1F
100
AcDbEntity
  8
0
  6
Continuous
 62
     7
370
    25
100
AcDbSpline
210
0.0
220
0.0
230
1.0
 70
     8
 71
     3
 72
    15
 73
    11
 74
     0
 42
0.00000001
 43
0.00000001
 40
0.0
 40
0.0
 40
0.0
 40
0.0
 40
0.2253905797268702
 40
0.3426787500117155
 40
0.4409400802054543
 40
0.522701914243841
 40
0.6043893336523684
 40
0.7228558457451276
 40
0.9154662151688708
 40
1.0
 40
1.0
 40
1.0
 40
1.0
 10
8.962862365565925
 20
-0.0635722953309127
 30
0.0
 10
8.963539122617398
 20
-0.0596142038543863
 30
0.0
 10
8.964568048763034
 20
-0.0535964109135646
 30
0.0
 10
8.962553579186432
 20
-0.0447550213760196
 30
0.0
 10
8.95970128515062
 20
-0.0385445208404174
 30
0.0
 10
8.955870061926198
 20
-0.0333587761573801
 30
0.0
 10
8.95091099587903
 20
-0.028768265990538
 30
0.0
 10
8.943578622169255
 20
-0.0244916045155376
 30
0.0
 10
8.936303020538805
 20
-0.0226723420281046
 30
0.0
 10
8.931449796768977
 20
-0.0227117002019879
 30
0.0
 10
8.929969479152321
 20
-0.0227237051292119
 30
0.0
  0
SPLINE
  5
1F1
330
1F
100
AcDbEntity
  8
0
  6
Continuous
 62
     7
370
    25
100
AcDbSpline
210
0.0
220
0.0
230
1.0
 70
     8
 71
     3
 72
    12
 73
     8
 74
     0
 42
0.00000001
 43
0.00000001
 40
0.0
 40
0.0
 40
0.0
 40
0.0
 40
0.1518462202167225
 40
0.3049078990792474
 40
0.5024991986623538
 40
0.7705037204673785
 40
1.0
 40
1.0
 40
1.0
 40
1.0
 10
8.964261855495039
 20
-0.0684454059502191
 30
0.0
 10
8.964031722674369
 20
-0.0683298945732224
 30
0.0
 10
8.963569614926413
 20
-0.06809794720417
 30
0.0
 10
8.962983153240812
 20
-0.0675060837375688
 30
0.0
 10
8.962524221629359
 20
-0.0666955175063049
 30
0.0
 10
8.962342386488737
 20
-0.0657609110556613
 30
0.0
 10
8.962454660474735
 20
-0.0651622673032244
 30
0.0
 10
8.962506452274882
 20
-0.0648861139511488
 30
0.0
  0
SPLINE
  5
1F5
330
1F
100
AcDbEntity
  8
0
  6
Continuous
 62
     7
370
    25
100
AcDbSpline
210
0.0
220
0.0
230
1.0
 70
     8
 71
     3
 72
    12
 73
     8
 74
     0
 42
0.00000001
 43
0.00000001
 40
0.0
 40
0.0
 40
0.0
 40
0.0
 40
0.2986733389058276
 40
0.5382770729739328
 40
0.7235249426134848
 40
0.8776212433009704
 40
1.0
 40
1.0
 40
1.0
 40
1.0
 10
8.999614993479602
 20
-0.0749388128720924
 30
0.0
 10
8.999483809687034
 20
-0.0752831030238768
 30
0.0
 10
8.999247386750378
 20
-0.0759035919360617
 30
0.0
 10
8.99852163517542
 20
-0.0766115948752116
 30
0.0
 10
8.997731888148353
 20
-0.0770159854926948
 30
0.0
 10
8.996974502974611
 20
-0.0771781428728983
 30
0.0
 10
8.996509064667922
 20
-0.0771415548237268
 30
0.0
 10
8.996303043329752
 20
-0.0771253595111731
 30
0.0
  0
SPLINE
  5
1F7
330
1F
100
AcDbEntity
  8
0
  6
Continuous
 62
     7
370
    25
100
AcDbSpline
210
0.0
220
0.0
230
1.0
 70
     8
 71
     3
 72
    15
 73
    11
 74
     0
 42
0.00000001
 43
0.00000001
 40
0.0
 40
0.0
 40
0.0
 40
0.0
 40
0.1905788738320439
 40
0.3191753678222698
 40
0.4236417231756565
 40
0.5063856001265975
 40
0.5891942629600453
 40
0.7001093367870286
 40
0.8774106523711585
 40
1.0
 40
1.0
 40
1.0
 40
1.0
 10
9.04898468555929
 20
-0.0549649088570063
 30
0.0
 10
9.046012200452786
 20
-0.0533582093174855
 30
0.0
 10
9.04103397800799
 20
-0.0506673606090482
 30
0.0
 10
9.03263967724846
 20
-0.0494453424294408
 30
0.0
 10
9.025559398925022
 20
-0.0499555222577141
 30
0.0
 10
9.019211154440754
 20
-0.0518009840568546
 30
0.0
 10
9.013235348625903
 20
-0.0548662369532948
 30
0.0
 10
9.006916358774737
 20
-0.0600768767649494
 30
0.0
 10
9.002323807500014
 20
-0.0665801330375831
 30
0.0
 10
9.000653638634981
 20
-0.0715808148392587
 30
0.0
 10
8.999970906770638
 20
-0.0736249942518451
 30
0.0
  0
SPLINE
  5
1F9
330
1F
100
AcDbEntity
  8
0
  6
Continuous
 62
     7
370
    25
100
AcDbSpline
210
0.0
220
0.0
230
1.0
 70
     8
 71
     3
 72
    13
 73
     9
 74
     0
 42
0.00000001
 43
0.00000001
 40
0.0
 40
0.0
 40
0.0
 40
0.0
 40
0.1156773017508045
 40
0.2663352086421356
 40
0.4204449693756635
 40
0.6579517864967845
 40
0.9827164964076412
 40
1.0
 40
1.0
 40
1.0
 40
1.0
 10
9.054051755339973
 20
-0.0551397888372633
 30
0.0
 10
9.053917095236896
 20
-0.0552810703254017
 30
0.0
 10
9.05360705406109
 20
-0.0556063565660997
 30
0.0
 10
9.052997945051745
 20
-0.0559640269839661
 30
0.0
 10
9.052193978208914
 20
-0.0562114992500878
 30
0.0
 10
9.051179226660528
 20
-0.0562119888844534
 30
0.0
 10
9.050489096467903
 20
-0.0559442160559243
 30
0.0
 10
9.050141768357651
 20
-0.0557206894655871
 30
0.0
 10
9.05012421806385
 20
-0.0557093947928639
 30
0.0
  0
CIRCLE
  5
1FD
330
1F
100
AcDbEntity
  8
0
  6
Continuous
 62
     7
370
    25
100
AcDbCircle
 10
9.0
 20
0.0
 30
0.0
 40
0.0775000000000011
  0
CIRCLE
  5
1FE
330
1F
100
AcDbEntity
  8
0
  6
Continuous
 62
     7
370
    25
100
AcDbCircle
 10
9.0
 20
0.0
 30
0.0
 40
0.019375
  0
CIRCLE
  5
1FF
330
1F
100
AcDbEntity
  8
0
  6
Continuous
 62
     7
370
    25
100
AcDbCircle
 10
9.0
 20
0.0
 30
0.0
 40
0.1795000000000038
  0
CIRCLE
  5
200
330
1F
100
AcDbEntity
  8
0
  6
Continuous
 62
     7
370
    25
100
AcDbCircle
 10
9.0
 20
0.0
 30
0.0
 40
0.1836453749327895
  0
SPLINE
  5
201
330
1F
100
AcDbEntity
  8
0
  6
Continuous
 62
     7
370
    25
100
AcDbSpline
210
0.0
220
0.0
230
1.0
 70
     8
 71
     3
 72
    12
 73
     8
 74
     0
 42
0.00000001
 43
0.00000001
 40
0.0
 40
0.0
 40
0.0
 40
0.0
 40
0.2520529095701912
 40
0.5049541893046346
 40
0.6971627199577429
 40
0.8545355143773483
 40
1.0
 40
1.0
 40
1.0
 40
1.0
 10
-8.928847927252331
 20
-0.0235235296758101
 30
0.0
 10
-8.928604416894377
 20
-0.0237142838539462
 30
0.0
 10
-8.928116576561186
 20
-0.0240964342585634
 30
0.0
 10
-8.927644726659183
 20
-0.0249324096130014
 30
0.0
 10
-8.927459818947536
 20
-0.0258221217296408
 30
0.0
 10
-8.927509304080633
 20
-0.0266440155589448
 30
0.0
 10
-8.92770016757052
 20
-0.0271202889463823
 30
0.0
 10
-8.927791846703869
 20
-0.0273490615179418
 30
0.0
  0
SPLINE
  5
203
330
1F
100
AcDbEntity
  8
0
  6
Continuous
 62
     7
370
    25
100
AcDbSpline
210
0.0
220
0.0
230
1.0
 70
     8
 71
     3
 72
    15
 73
    11
 74
     0
 42
0.00000001
 43
0.00000001
 40
0.0
 40
0.0
 40
0.0
 40
0.0
 40
0.1883858441808667
 40
0.3177585680802005
 40
0.4226043769228239
 40
0.5054293728961312
 40
0.5883277728747033
 40
0.6988380094249691
 40
0.8752813743667585
 40
1.0
 40
1.0
 40
1.0
 40
1.0
 10
-8.932588164962048
 20
0.0296021134687496
 30
0.0
 10
-8.93500774092123
 20
0.0273009867536156
 30
0.0
 10
-8.93908894455675
 20
0.0234195765916606
 30
0.0
 10
-8.942855289991517
 20
0.0158567531572108
 30
0.0
 10
-8.94458049377484
 20
0.0089524263462788
 30
0.0
 10
-8.94480272688402
 20
0.0023349137399554
 30
0.0
 10
-8.943748131546636
 20
-0.0042968421918795
 30
0.0
 10
-8.940768081900998
 20
-0.0119084262777882
 30
0.0
 10
-8.936005975599361
 20
-0.018322521989516
 30
0.0
 10
-8.931749974874169
 20
-0.0214739567116409
 30
0.0
 10
-8.929987459756882
 20
-0.0227790437399403
 30
0.0
  0
SPLINE
  5
205
330
1F
100
AcDbEntity
  8
0
  6
Continuous
 62
     7
370
    25
100
AcDbSpline
210
0.0
220
0.0
230
1.0
 70
     8
 71
     3
 72
    12
 73
     8
 74
     0
 42
0.00000001
 43
0.00000001
 40
0.0
 40
0.0
 40
0.0
 40
0.0
 40
0.1495672850720701
 40
0.302446722628447
 40
0.4992665505824646
 40
0.7660320681534796
 40
1.0
 40
1.0
 40
1.0
 40
1.0
 10
-8.930856033543337
 20
0.0343671423163003
 30
0.0
 10
-8.930739304652876
 20
0.0341420619747276
 30
0.0
 10
-8.930503261922413
 20
0.0336869169100566
 30
0.0
 10
-8.930374037901174
 20
0.0328684214958846
 30
0.0
 10
-8.930474987872934
 20
0.0319443355961317
 30
0.0
 10
-8.930874754552924
 20
0.0310747429692818
 30
0.0
 10
-8.931319959594052
 20
0.0306529141731827
 30
0.0
 10
-8.931527981851882
 20
0.030455814476465
 30
0.0
  0
SPLINE
  5
209
330
1F
100
AcDbEntity
  8
0
  6
Continuous
 62
     7
370
    25
100
AcDbSpline
210
0.0
220
0.0
230
1.0
 70
     8
 71
     3
 72
    12
 73
     8
 74
     0
 42
0.00000001
 43
0.00000001
 40
0.0
 40
0.0
 40
0.0
 40
0.0
 40
0.29384533852308
 40
0.5348029578150786
 40
0.7207603937754664
 40
0.8751765898925801
 40
1.0
 40
1.0
 40
1.0
 40
1.0
 10
-8.955640594151529
 20
0.060400471997071
 30
0.0
 10
-8.955337529870187
 20
0.0605989573900194
 30
0.0
 10
-8.954785948297092
 20
0.0609602038054481
 30
0.0
 10
-8.953789191331866
 20
0.0611113022264136
 30
0.0
 10
-8.95290976737848
 20
0.0609781680229775
 30
0.0
 10
-8.952195552071315
 20
0.0606653288670353
 30
0.0
 10
-8.951836466036797
 20
0.0603594440620777
 30
0.0
 10
-8.951675950327878
 20
0.0602227099326643
 30
0.0
  0
SPLINE
  5
20B
330
1F
100
AcDbEntity
  8
0
  6
Continuous
 62
     7
370
    25
100
AcDbSpline
210
0.0
220
0.0
230
1.0
 70
     8
 71
     3
 72
    15
 73
    11
 74
     0
 42
0.00000001
 43
0.00000001
 40
0.0
 40
0.0
 40
0.0
 40
0.0
 40
0.2256928926760646
 40
0.3428909870225973
 40
0.4410979036919103
 40
0.5228540960583711
 40
0.6045346451410872
 40
0.7230773741124051
 40
0.9158357597607862
 40
0.9999999999999999
 40
0.9999999999999999
 40
0.9999999999999999
 40
0.9999999999999999
 10
-9.007321880261822
 20
0.0732600211195131
 30
0.0
 10
-9.00554005050243
 20
0.069655258932198
 30
0.0
 10
-9.002832949903654
 20
0.0641786112197498
 30
0.0
 10
-8.995999340504245
 20
0.0582095622245597
 30
0.0
 10
-8.99004181574579
 20
0.0548651655040733
 30
0.0
 10
-8.983894822260389
 20
0.0529244002271017
 30
0.0
 10
-8.977183755587037
 20
0.0521276517703854
 30
0.0
 10
-8.968735340567989
 20
0.0529810643351818
 30
0.0
 10
-8.961785399655948
 20
0.0557879077575078
 30
0.0
 10
-8.957885930810198
 20
0.0586706331462095
 30
0.0
 10
-8.95670077726167
 20
0.059546770989337
 30
0.0
  0
SPLINE
  5
20D
330
1F
100
AcDbEntity
  8
0
  6
Continuous
 62
     7
370
    25
100
AcDbSpline
210
0.0
220
0.0
230
1.0
 70
     8
 71
     3
 72
    12
 73
     8
 74
     0
 42
0.00000001
 43
0.00000001
 40
0.0
 40
0.0
 40
0.0
 40
0.0
 40
0.1510917194795721
 40
0.3040926146879705
 40
0.5014278081238343
 40
0.7690216267658497
 40
1.0
 40
1.0
 40
1.0
 40
1.0
 10
-9.01131843395276
 20
0.0763798508849357
 30
0.0
 10
-9.011065662191104
 20
0.0764215520718994
 30
0.0
 10
-9.010556924676001
 20
0.0765054813767156
 30
0.0
 10
-9.009735893244276
 20
0.0763727233907314
 30
0.0
 10
-9.00888818898336
 20
0.075988186731972
 30
0.0
 10
-9.008189403844112
 20
0.0753390533586495
 30
0.0
 10
-9.00792751250831
 20
0.0747876002996413
 30
0.0
 10
-9.007806183570008
 20
0.0745321232943848
 30
0.0
  0
SPLINE
  5
211
330
1F
100
AcDbEntity
  8
0
  6
Continuous
 62
     7
370
    25
100
AcDbSpline
210
0.0
220
0.0
230
1.0
 70
     8
 71
     3
 72
    12
 73
     8
 74
     0
 42
0.00000001
 43
0.00000001
 40
0.0
 40
0.0
 40
0.0
 40
0.0
 40
0.2972549323490938
 40
0.5372558238083228
 40
0.7227118685449445
 40
0.8769016642258743
 40
1.0
 40
1.0
 40
1.0
 40
1.0
 10
-9.043736452212569
 20
0.0608530743065557
 30
0.0
 10
-9.043832363274378
 20
0.0612069319061533
 30
0.0
 10
-9.044005712043113
 20
0.0618464908688264
 30
0.0
 10
-9.043836690986181
 20
0.0628444808639178
 30
0.0
 10
-9.043436303199424
 20
0.0636369823302797
 30
0.0
 10
-9.042918636506132
 20
0.0642151785784223
 30
0.0
 10
-9.042519458036422
 20
0.0644600401501556
 30
0.0
 10
-9.042342248124697
 20
0.0645687431509556
 30
0.0
  0
SPLINE
  5
213
330
1F
100
AcDbEntity
  8
0
  6
Continuous
 62
     7
370
    25
100
AcDbSpline
210
0.0
220
0.0
230
1.0
 70
     8
 71
     3
 72
    15
 73
    11
 74
     0
 42
0.00000001
 43
0.00000001
 40
0.0
 40
0.0
 40
0.0
 40
0.0
 40
0.2256228664149604
 40
0.3428418134434159
 40
0.4410613335056289
 40
0.5228188276051182
 40
0.6045009630499252
 40
0.7230260190002981
 40
0.9157500941990422
 40
1.0
 40
1.0
 40
1.0
 40
1.0
 10
-9.071937005901306
 20
0.0156750695996492
 30
0.0
 10
-9.067959320145578
 20
0.0162554784908275
 30
0.0
 10
-9.061915087929796
 20
0.0171374300410055
 30
0.0
 10
-9.054127050788079
 20
0.0217905122685329
 30
0.0
 10
-9.049104566678432
 20
0.0264228347694147
 30
0.0
 10
-9.045358633530087
 20
0.0316691934785186
 30
0.0
 10
-9.042526627092943
 20
0.0378052411124346
 30
0.0
 10
-9.040726996852579
 20
0.0461030511993159
 30
0.0
 10
-9.041247943926235
 20
0.0535812529472691
 30
0.0
 10
-9.042784698974335
 20
0.0581816300765372
 30
0.0
 10
-9.043252148904374
 20
0.0595809721316674
 30
0.0
  0
SPLINE
  5
215
330
1F
100
AcDbEntity
  8
0
  6
Continuous
 62
     7
370
    25
100
AcDbSpline
210
0.0
220
0.0
230
1.0
 70
     8
 71
     3
 72
    12
 73
     8
 74
     0
 42
0.00000001
 43
0.00000001
 40
0.0
 40
0.0
 40
0.0
 40
0.0
 40
0.1516365002402027
 40
0.3046812393348918
 40
0.5022012835195531
 40
0.7700915977806981
 40
1.0
 40
1.0
 40
1.0
 40
1.0
 10
-9.076139143338882
 20
0.0128382015862446
 30
0.0
 10
-9.076100481801445
 20
0.0130924107302208
 30
0.0
 10
-9.076022799679253
 20
0.0136031898428636
 30
0.0
 10
-9.075641602394068
 20
0.0143436132153529
 30
0.0
 10
-9.0750129165354
 20
0.015030683713546
 30
0.0
 10
-9.074180068868566
 20
0.015493052519852
 30
0.0
 10
-9.073575654001882
 20
0.0155713905456929
 30
0.0
 10
-9.073296504916764
 20
0.0156075709731586
 30
0.0
  0
SPLINE
  5
219
330
1F
100
AcDbEntity
  8
0
  6
Continuous
 62
     7
370
    25
100
AcDbSpline
210
0.0
220
0.0
230
1.0
 70
     8
 71
     3
 72
    12
 73
     8
 74
     0
 42
0.00000001
 43
0.00000001
 40
0.0
 40
0.0
 40
0.0
 40
0.0
 40
0.2982712409787111
 40
0.5379875126760169
 40
0.7232943725888344
 40
0.8774171364892681
 40
1.0
 40
1.0
 40
1.0
 40
1.0
 10
-9.071390019863165
 20
-0.0227912037557115
 30
0.0
 10
-9.071757486738438
 20
-0.0227729003876382
 30
0.0
 10
-9.072420281413416
 20
-0.0227398868680274
 30
0.0
 10
-9.07331770196309
 20
-0.0222690940865917
 30
0.0
 10
-9.073946726449055
 20
-0.0216430890009005
 30
0.0
 10
-9.074335463800884
 20
-0.020972656150291
 30
0.0
 10
-9.074444634609312
 20
-0.0205183107812347
 30
0.0
 10
-9.074492998173271
 20
-0.0203170320545141
 30
0.0
  0
SPLINE
  5
21B
330
1F
100
AcDbEntity
  8
0
  6
Continuous
 62
     7
370
    25
100
AcDbSpline
210
0.0
220
0.0
230
1.0
 70
     8
 71
     3
 72
    15
 73
    11
 74
     0
 42
0.00000001
 43
0.00000001
 40
0.0
 40
0.0
 40
0.0
 40
0.0
 40
0.2253905797268701
 40
0.3426787500117154
 40
0.4409400802054542
 40
0.522701914243841
 40
0.6043893336523684
 40
0.7228558457451276
 40
0.9154662151688707
 40
0.9999999999999999
 40
0.9999999999999999
 40
0.9999999999999999
 40
0.9999999999999999
 10
-9.037137634434089
 20
-0.0635722953309126
 30
0.0
 10
-9.036460877382614
 20
-0.0596142038543862
 30
0.0
 10
-9.035431951236978
 20
-0.0535964109135645
 30
0.0
 10
-9.037446420813584
 20
-0.0447550213760194
 30
0.0
 10
-9.040298714849394
 20
-0.0385445208404173
 30
0.0
 10
-9.044129938073816
 20
-0.03335877615738
 30
0.0
 10
-9.049089004120985
 20
-0.0287682659905378
 30
0.0
 10
-9.056421377830763
 20
-0.0244916045155375
 30
0.0
 10
-9.063696979461206
 20
-0.0226723420281045
 30
0.0
 10
-9.068550203231041
 20
-0.0227117002019878
 30
0.0
 10
-9.070030520847695
 20
-0.0227237051292118
 30
0.0
  0
SPLINE
  5
21D
330
1F
100
AcDbEntity
  8
0
  6
Continuous
 62
     7
370
    25
100
AcDbSpline
210
0.0
220
0.0
230
1.0
 70
     8
 71
     3
 72
    12
 73
     8
 74
     0
 42
0.00000001
 43
0.00000001
 40
0.0
 40
0.0
 40
0.0
 40
0.0
 40
0.1518462202167225
 40
0.3049078990792474
 40
0.5024991986623538
 40
0.7705037204673785
 40
1.0
 40
1.0
 40
1.0
 40
1.0
 10
-9.035738144504975
 20
-0.0684454059502189
 30
0.0
 10
-9.035968277325644
 20
-0.0683298945732222
 30
0.0
 10
-9.036430385073597
 20
-0.0680979472041699
 30
0.0
 10
-9.037016846759201
 20
-0.0675060837375687
 30
0.0
 10
-9.037475778370656
 20
-0.0666955175063048
 30
0.0
 10
-9.037657613511284
 20
-0.0657609110556612
 30
0.0
 10
-9.037545339525279
 20
-0.0651622673032243
 30
0.0
 10
-9.037493547725132
 20
-0.0648861139511486
 30
0.0
  0
SPLINE
  5
221
330
1F
100
AcDbEntity
  8
0
  6
Continuous
 62
     7
370
    25
100
AcDbSpline
210
0.0
220
0.0
230
1.0
 70
     8
 71
     3
 72
    12
 73
     8
 74
     0
 42
0.00000001
 43
0.00000001
 40
0.0
 40
0.0
 40
0.0
 40
0.0
 40
0.2986733389058279
 40
0.5382770729739331
 40
0.7235249426134847
 40
0.8776212433009704
 40
1.0
 40
1.0
 40
1.0
 40
1.0
 10
-9.000385006520412
 20
-0.0749388128720922
 30
0.0
 10
-9.000516190312979
 20
-0.0752831030238767
 30
0.0
 10
-9.000752613249634
 20
-0.0759035919360615
 30
0.0
 10
-9.001478364824592
 20
-0.0766115948752115
 30
0.0
 10
-9.002268111851658
 20
-0.0770159854926946
 30
0.0
 10
-9.003025497025405
 20
-0.0771781428728982
 30
0.0
 10
-9.003490935332094
 20
-0.0771415548237266
 30
0.0
 10
-9.003696956670264
 20
-0.077125359511173
 30
0.0
  0
SPLINE
  5
223
330
1F
100
AcDbEntity
  8
0
  6
Continuous
 62
     7
370
    25
100
AcDbSpline
210
0.0
220
0.0
230
1.0
 70
     8
 71
     3
 72
    15
 73
    11
 74
     0
 42
0.00000001
 43
0.00000001
 40
0.0
 40
0.0
 40
0.0
 40
0.0
 40
0.1905788738320439
 40
0.3191753678222698
 40
0.4236417231756565
 40
0.5063856001265975
 40
0.5891942629600453
 40
0.7001093367870286
 40
0.8774106523711585
 40
1.0
 40
1.0
 40
1.0
 40
1.0
 10
-8.951015314440724
 20
-0.0549649088570062
 30
0.0
 10
-8.953987799547226
 20
-0.0533582093174855
 30
0.0
 10
-8.958966021992023
 20
-0.0506673606090481
 30
0.0
 10
-8.967360322751556
 20
-0.0494453424294407
 30
0.0
 10
-8.974440601074992
 20
-0.049955522257714
 30
0.0
 10
-8.98078884555926
 20
-0.0518009840568545
 30
0.0
 10
-8.986764651374106
 20
-0.0548662369532947
 30
0.0
 10
-8.993083641225281
 20
-0.0600768767649493
 30
0.0
 10
-8.9976761925
 20
-0.066580133037583
 30
0.0
 10
-8.999346361365033
 20
-0.0715808148392586
 30
0.0
 10
-9.000029093229374
 20
-0.073624994251845
 30
0.0
  0
SPLINE
  5
225
330
1F
100
AcDbEntity
  8
0
  6
Continuous
 62
     7
370
    25
100
AcDbSpline
210
0.0
220
0.0
230
1.0
 70
     8
 71
     3
 72
    13
 73
     9
 74
     0
 42
0.00000001
 43
0.00000001
 40
0.0
 40
0.0
 40
0.0
 40
0.0
 40
0.1156773017508045
 40
0.2663352086421356
 40
0.4204449693756635
 40
0.6579517864967845
 40
0.9827164964076412
 40
1.0
 40
1.0
 40
1.0
 40
1.0
 10
-8.94594824466004
 20
-0.0551397888372632
 30
0.0
 10
-8.94608290476312
 20
-0.0552810703254016
 30
0.0
 10
-8.946392945938927
 20
-0.0556063565660995
 30
0.0
 10
-8.947002054948264
 20
-0.055964026983966
 30
0.0
 10
-8.947806021791102
 20
-0.0562114992500877
 30
0.0
 10
-8.948820773339488
 20
-0.0562119888844533
 30
0.0
 10
-8.9495109035321
 20
-0.0559442160559241
 30
0.0
 10
-8.949858231642363
 20
-0.055720689465587
 30
0.0
 10
-8.949875781936164
 20
-0.0557093947928638
 30
0.0
  0
CIRCLE
  5
229
330
1F
100
AcDbEntity
  8
0
  6
Continuous
 62
     7
370
    25
100
AcDbCircle
 10
-9.0
 20
0.0
 30
0.0
 40
0.077500000000002
  0
CIRCLE
  5
22A
330
1F
100
AcDbEntity
  8
0
  6
Continuous
 62
     7
370
    25
100
AcDbCircle
 10
-9.0
 20
0.0
 30
0.0
 40
0.0193750000000029
  0
CIRCLE
  5
22B
330
1F
100
AcDbEntity
  8
0
  6
Continuous
 62
     7
370
    25
100
AcDbCircle
 10
-9.0
 20
0.0
 30
0.0
 40
0.1836453749327858
  0
CIRCLE
  5
22C
330
1F
100
AcDbEntity
  8
0
  6
Continuous
 62
     7
370
    25
100
AcDbCircle
 10
-9.0
 20
0.0
 30
0.0
 40
0.1795000000000052
  0
CIRCLE
  5
250
330
1F
100
AcDbEntity
  8
0
  6
Continuous
 62
     7
370
    25
100
AcDbCircle
 10
-9.0
 20
0.0
 30
0.0
 40
0.1968854999999994
  0
CIRCLE
  5
25D
330
1F
100
AcDbEntity
  8
0
  6
Continuous
 62
     7
370
    25
100
AcDbCircle
 10
9.0
 20
0.0
 30
0.0
 40
0.1968855
  0
LINE
  5
264
330
1F
100
AcDbEntity
  8
0
  6
Continuous
 62
     7
370
    25
100
AcDbLine
 10
0.0259296189
 20
0.3899704724
 30
0.0
 11
-0.0259296189
 21
0.3899704724
 31
0.0
  0
LINE
  5
265
330
1F
100
AcDbEntity
  8
0
  6
Continuous
 62
     7
370
    25
100
AcDbLine
 10
-8.8482571387
 20
-1.7765556007
 30
0.0
 11
-8.8482571387
 21
-1.9328056007
 31
0.0
  0
LINE
  5
266
330
1F
100
AcDbEntity
  8
0
  6
Continuous
 62
     7
370
    25
100
AcDbLine
 10
-8.867670803
 20
-2.0591642963
 30
0.0
 11
-8.8600873404
 21
-2.0288483996
 31
0.0
  0
LINE
  5
267
330
1F
100
AcDbEntity
  8
0
  6
Continuous
 62
     7
370
    25
100
AcDbLine
 10
-8.625
 20
-2.0578056007
 30
0.0
 11
8.625
 21
-2.0578056007
 31
0.0
  0
LINE
  5
268
330
1F
100
AcDbEntity
  8
0
  6
Continuous
 62
     7
370
    25
100
AcDbLine
 10
8.8482571387
 20
-1.9328056007
 30
0.0
 11
-8.8482571387
 21
-1.9328056007
 31
0.0
  0
LINE
  5
269
330
1F
100
AcDbEntity
  8
0
  6
Continuous
 62
     7
370
    25
100
AcDbLine
 10
-8.8482571387
 20
-1.9015556007
 30
0.0
 11
8.8482571387
 21
-1.9015556007
 31
0.0
  0
LINE
  5
26A
330
1F
100
AcDbEntity
  8
0
  6
Continuous
 62
     7
370
    25
100
AcDbLine
 10
8.8482571387
 20
-1.7765556007
 30
0.0
 11
8.8482571387
 21
-1.9328056007
 31
0.0
  0
LINE
  5
26B
330
1F
100
AcDbEntity
  8
0
  6
Continuous
 62
     7
370
    25
100
AcDbLine
 10
8.8600873404
 20
-2.0288483996
 30
0.0
 11
8.867670803
 21
-2.0591642963
 31
0.0
  0
LINE
  5
26C
330
1F
100
AcDbEntity
  8
0
  6
Continuous
 62
     7
370
    25
100
AcDbLine
 10
8.625
 20
-2.0578056007
 30
0.0
 11
8.625
 21
-2.0890556007
 31
0.0
  0
LINE
  5
26D
330
1F
100
AcDbEntity
  8
0
  6
Continuous
 62
     7
370
    25
100
AcDbLine
 10
8.625
 20
-2.0890556007
 30
0.0
 11
-8.625
 21
-2.0890556007
 31
0.0
  0
LINE
  5
26E
330
1F
100
AcDbEntity
  8
0
  6
Continuous
 62
     7
370
    25
100
AcDbLine
 10
-8.625
 20
-2.0890556007
 30
0.0
 11
-8.625
 21
-2.0578056007
 31
0.0
  0
LINE
  5
26F
330
1F
100
AcDbEntity
  8
0
  6
Continuous
 62
     7
370
    25
100
AcDbLine
 10
9.0657452523
 20
-1.9866878319
 30
0.0
 11
9.0519719632
 21
-1.9586368247
 31
0.0
  0
LINE
  5
270
330
1F
100
AcDbEntity
  8
0
  6
Continuous
 62
     7
370
    25
100
AcDbLine
 10
-9.0657452523
 20
-1.9866878319
 30
0.0
 11
-9.0519719632
 21
-1.9586368247
 31
0.0
  0
LINE
  5
271
330
1F
100
AcDbEntity
  8
0
  6
Continuous
 62
     7
370
    25
100
AcDbLine
 10
-8.8482571387
 20
-1.7765556007
 30
0.0
 11
8.8482571387
 21
-1.7765556007
 31
0.0
  0
LINE
  5
272
330
1F
100
AcDbEntity
  8
0
  6
Continuous
 62
     7
370
    25
100
AcDbLine
 10
-2.1571048895
 20
-1.5669094011
 30
0.0
 11
-2.1075743834
 21
-1.5669094011
 31
0.0
  0
LINE
  5
273
330
1F
100
AcDbEntity
  8
0
  6
Continuous
 62
     7
370
    25
100
AcDbLine
 10
-2.1815541585
 20
-1.7404241646
 30
0.0
 11
-2.1815541585
 21
-1.59096369
 31
0.0
  0
LINE
  5
274
330
1F
100
AcDbEntity
  8
0
  6
Continuous
 62
     7
370
    25
100
AcDbLine
 10
-2.1436360677
 20
-1.685719419
 30
0.0
 11
-2.1436360677
 21
-1.7402661726
 31
0.0
  0
LINE
  5
275
330
1F
100
AcDbEntity
  8
0
  6
Continuous
 62
     7
370
    25
100
AcDbLine
 10
-2.1079298655
 20
-1.685719419
 30
0.0
 11
-2.1436360677
 21
-1.685719419
 31
0.0
  0
LINE
  5
276
330
1F
100
AcDbEntity
  8
0
  6
Continuous
 62
     7
370
    25
100
AcDbLine
 10
-1.7791484197
 20
-1.5669094011
 30
0.0
 11
-1.6752686501
 21
-1.5669094011
 31
0.0
  0
LINE
  5
277
330
1F
100
AcDbEntity
  8
0
  6
Continuous
 62
     7
370
    25
100
AcDbLine
 10
-1.8023732503
 20
-1.7373828178
 30
0.0
 11
-1.8023732503
 21
-1.591082184
 31
0.0
  0
LINE
  5
278
330
1F
100
AcDbEntity
  8
0
  6
Continuous
 62
     7
370
    25
100
AcDbLine
 10
-1.6721878052
 20
-1.7615556007
 30
0.0
 11
-1.7791484197
 21
-1.7615556007
 31
0.0
  0
LINE
  5
279
330
1F
100
AcDbEntity
  8
0
  6
Continuous
 62
     7
370
    25
100
AcDbLine
 10
-1.7644551595
 20
-1.731221128
 30
0.0
 11
-1.6721878052
 21
-1.731221128
 31
0.0
  0
LINE
  5
27A
330
1F
100
AcDbEntity
  8
0
  6
Continuous
 62
     7
370
    25
100
AcDbLine
 10
-1.7644551595
 20
-1.6756079281
 30
0.0
 11
-1.7644551595
 21
-1.731221128
 31
0.0
  0
LINE
  5
27B
330
1F
100
AcDbEntity
  8
0
  6
Continuous
 62
     7
370
    25
100
AcDbLine
 10
-1.6823387941
 20
-1.6756079281
 30
0.0
 11
-1.7644551595
 21
-1.6756079281
 31
0.0
  0
LINE
  5
27C
330
1F
100
AcDbEntity
  8
0
  6
Continuous
 62
     7
370
    25
100
AcDbLine
 10
-1.7644551595
 20
-1.6452734555
 30
0.0
 11
-1.6823387941
 21
-1.6452734555
 31
0.0
  0
LINE
  5
27D
330
1F
100
AcDbEntity
  8
0
  6
Continuous
 62
     7
370
    25
100
AcDbLine
 10
-1.7644551595
 20
-1.5972438738
 30
0.0
 11
-1.7644551595
 21
-1.6452734555
 31
0.0
  0
LINE
  5
27E
330
1F
100
AcDbEntity
  8
0
  6
Continuous
 62
     7
370
    25
100
AcDbLine
 10
-1.6752686501
 20
-1.5972438738
 30
0.0
 11
-1.7644551595
 21
-1.5972438738
 31
0.0
  0
LINE
  5
27F
330
1F
100
AcDbEntity
  8
0
  6
Continuous
 62
     7
370
    25
100
AcDbLine
 10
-0.8291422526
 20
-1.5859474426
 30
0.0
 11
-0.8291422526
 21
-1.6803476895
 31
0.0
  0
LINE
  5
280
330
1F
100
AcDbEntity
  8
0
  6
Continuous
 62
     7
370
    25
100
AcDbLine
 10
-0.8670603434
 20
-1.6836655224
 30
0.0
 11
-0.8670603434
 21
-1.5860264386
 31
0.0
  0
LINE
  5
281
330
1F
100
AcDbEntity
  8
0
  6
Continuous
 62
     7
370
    25
100
AcDbLine
 10
-0.9530080159
 20
-1.5860264386
 30
0.0
 11
-0.9530080159
 21
-1.6828360642
 31
0.0
  0
LINE
  5
282
330
1F
100
AcDbEntity
  8
0
  6
Continuous
 62
     7
370
    25
100
AcDbLine
 10
-0.9909261068
 20
-1.6799132114
 30
0.0
 11
-0.9909261068
 21
-1.5858684465
 31
0.0
  0
LINE
  5
283
330
1F
100
AcDbEntity
  8
0
  6
Continuous
 62
     7
370
    25
100
AcDbLine
 10
-0.6119821866
 20
-1.5669094011
 30
0.0
 11
-0.4876819452
 21
-1.5669094011
 31
0.0
  0
LINE
  5
284
330
1F
100
AcDbEntity
  8
0
  6
Continuous
 62
     7
370
    25
100
AcDbLine
 10
-0.5687713623
 20
-1.5997717465
 30
0.0
 11
-0.6119821866
 21
-1.5997717465
 31
0.0
  0
LINE
  5
285
330
1F
100
AcDbEntity
  8
0
  6
Continuous
 62
     7
370
    25
100
AcDbLine
 10
-0.5687713623
 20
-1.7402266746
 30
0.0
 11
-0.5687713623
 21
-1.5997717465
 31
0.0
  0
LINE
  5
286
330
1F
100
AcDbEntity
  8
0
  6
Continuous
 62
     7
370
    25
100
AcDbLine
 10
-0.5308532715
 20
-1.5997717465
 30
0.0
 11
-0.5308532715
 21
-1.7402266746
 31
0.0
  0
LINE
  5
287
330
1F
100
AcDbEntity
  8
0
  6
Continuous
 62
     7
370
    25
100
AcDbLine
 10
-0.4876819452
 20
-1.5997717465
 30
0.0
 11
-0.5308532715
 21
-1.5997717465
 31
0.0
  0
LINE
  5
288
330
1F
100
AcDbEntity
  8
0
  6
Continuous
 62
     7
370
    25
100
AcDbLine
 10
-0.2224527995
 20
-1.7414116149
 30
0.0
 11
-0.2224527995
 21
-1.5905292119
 31
0.0
  0
LINE
  5
289
330
1F
100
AcDbEntity
  8
0
  6
Continuous
 62
     7
370
    25
100
AcDbLine
 10
-0.1870625814
 20
-1.6275783464
 30
0.0
 11
-0.1870625814
 21
-1.741530109
 31
0.0
  0
LINE
  5
28A
330
1F
100
AcDbEntity
  8
0
  6
Continuous
 62
     7
370
    25
100
AcDbLine
 10
-0.112095356
 20
-1.7408586428
 30
0.0
 11
-0.1870625814
 21
-1.6275783464
 31
0.0
  0
LINE
  5
28B
330
1F
100
AcDbEntity
  8
0
  6
Continuous
 62
     7
370
    25
100
AcDbLine
 10
-0.0606689453
 20
-1.5845255141
 30
0.0
 11
-0.0606689453
 21
-1.73833077
 31
0.0
  0
LINE
  5
28C
330
1F
100
AcDbEntity
  8
0
  6
Continuous
 62
     7
370
    25
100
AcDbLine
 10
-0.0960591634
 20
-1.7008866554
 30
0.0
 11
-0.0960591634
 21
-1.5845255141
 31
0.0
  0
LINE
  5
28D
330
1F
100
AcDbEntity
  8
0
  6
Continuous
 62
     7
370
    25
100
AcDbLine
 10
-0.1729222933
 20
-1.5855919605
 30
0.0
 11
-0.0960591634
 21
-1.7008866554
 31
0.0
  0
LINE
  5
28E
330
1F
100
AcDbEntity
  8
0
  6
Continuous
 62
     7
370
    25
100
AcDbLine
 10
0.305043141
 20
-1.5669094011
 30
0.0
 11
0.3545736472
 21
-1.5669094011
 31
0.0
  0
LINE
  5
28F
330
1F
100
AcDbEntity
  8
0
  6
Continuous
 62
     7
370
    25
100
AcDbLine
 10
0.2805938721
 20
-1.7404241646
 30
0.0
 11
0.2805938721
 21
-1.59096369
 31
0.0
  0
LINE
  5
290
330
1F
100
AcDbEntity
  8
0
  6
Continuous
 62
     7
370
    25
100
AcDbLine
 10
0.3185119629
 20
-1.685719419
 30
0.0
 11
0.3185119629
 21
-1.7402661726
 31
0.0
  0
LINE
  5
291
330
1F
100
AcDbEntity
  8
0
  6
Continuous
 62
     7
370
    25
100
AcDbLine
 10
0.3542181651
 20
-1.685719419
 30
0.0
 11
0.3185119629
 21
-1.685719419
 31
0.0
  0
LINE
  5
292
330
1F
100
AcDbEntity
  8
0
  6
Continuous
 62
     7
370
    25
100
AcDbLine
 10
0.6673583984
 20
-1.7371853277
 30
0.0
 11
0.6673583984
 21
-1.5859474426
 31
0.0
  0
LINE
  5
293
330
1F
100
AcDbEntity
  8
0
  6
Continuous
 62
     7
370
    25
100
AcDbLine
 10
0.7855364482
 20
-1.7615556007
 30
0.0
 11
0.6905832291
 21
-1.7615556007
 31
0.0
  0
LINE
  5
294
330
1F
100
AcDbEntity
  8
0
  6
Continuous
 62
     7
370
    25
100
AcDbLine
 10
0.7052764893
 20
-1.7286932553
 30
0.0
 11
0.7855364482
 21
-1.7286932553
 31
0.0
  0
LINE
  5
295
330
1F
100
AcDbEntity
  8
0
  6
Continuous
 62
     7
370
    25
100
AcDbLine
 10
0.7052764893
 20
-1.5859474426
 30
0.0
 11
0.7052764893
 21
-1.7286932553
 31
0.0
  0
LINE
  5
296
330
1F
100
AcDbEntity
  8
0
  6
Continuous
 62
     7
370
    25
100
AcDbLine
 10
1.0667622884
 20
-1.7399501885
 30
0.0
 11
1.0667622884
 21
-1.5858684465
 31
0.0
  0
LINE
  5
297
330
1F
100
AcDbEntity
  8
0
  6
Continuous
 62
     7
370
    25
100
AcDbLine
 10
1.1046803792
 20
-1.6756079281
 30
0.0
 11
1.1046803792
 21
-1.7403056706
 31
0.0
  0
LINE
  5
298
330
1F
100
AcDbEntity
  8
0
  6
Continuous
 62
     7
370
    25
100
AcDbLine
 10
1.1906280518
 20
-1.6756079281
 30
0.0
 11
1.1046803792
 21
-1.6756079281
 31
0.0
  0
LINE
  5
299
330
1F
100
AcDbEntity
  8
0
  6
Continuous
 62
     7
370
    25
100
AcDbLine
 10
1.1906280518
 20
-1.7403056706
 30
0.0
 11
1.1906280518
 21
-1.6756079281
 31
0.0
  0
LINE
  5
29A
330
1F
100
AcDbEntity
  8
0
  6
Continuous
 62
     7
370
    25
100
AcDbLine
 10
1.2285461426
 20
-1.5858684465
 30
0.0
 11
1.2285461426
 21
-1.7399501885
 31
0.0
  0
LINE
  5
29B
330
1F
100
AcDbEntity
  8
0
  6
Continuous
 62
     7
370
    25
100
AcDbLine
 10
1.1906280518
 20
-1.6427455828
 30
0.0
 11
1.1906280518
 21
-1.5861054346
 31
0.0
  0
LINE
  5
29C
330
1F
100
AcDbEntity
  8
0
  6
Continuous
 62
     7
370
    25
100
AcDbLine
 10
1.1046803792
 20
-1.6427455828
 30
0.0
 11
1.1906280518
 21
-1.6427455828
 31
0.0
  0
LINE
  5
29D
330
1F
100
AcDbEntity
  8
0
  6
Continuous
 62
     7
370
    25
100
AcDbLine
 10
1.1046803792
 20
-1.5861054346
 30
0.0
 11
1.1046803792
 21
-1.6427455828
 31
0.0
  0
LINE
  5
29E
330
1F
100
AcDbEntity
  8
0
  6
Continuous
 62
     7
370
    25
100
AcDbLine
 10
1.4712219238
 20
-1.7414116149
 30
0.0
 11
1.4712219238
 21
-1.5905292119
 31
0.0
  0
LINE
  5
29F
330
1F
100
AcDbEntity
  8
0
  6
Continuous
 62
     7
370
    25
100
AcDbLine
 10
1.5066121419
 20
-1.6275783464
 30
0.0
 11
1.5066121419
 21
-1.741530109
 31
0.0
  0
LINE
  5
2A0
330
1F
100
AcDbEntity
  8
0
  6
Continuous
 62
     7
370
    25
100
AcDbLine
 10
1.5815793673
 20
-1.7408586428
 30
0.0
 11
1.5066121419
 21
-1.6275783464
 31
0.0
  0
LINE
  5
2A1
330
1F
100
AcDbEntity
  8
0
  6
Continuous
 62
     7
370
    25
100
AcDbLine
 10
1.633005778
 20
-1.5845255141
 30
0.0
 11
1.633005778
 21
-1.73833077
 31
0.0
  0
LINE
  5
2A2
330
1F
100
AcDbEntity
  8
0
  6
Continuous
 62
     7
370
    25
100
AcDbLine
 10
1.5976155599
 20
-1.7008866554
 30
0.0
 11
1.5976155599
 21
-1.5845255141
 31
0.0
  0
LINE
  5
2A3
330
1F
100
AcDbEntity
  8
0
  6
Continuous
 62
     7
370
    25
100
AcDbLine
 10
1.52075243
 20
-1.5855919605
 30
0.0
 11
1.5976155599
 21
-1.7008866554
 31
0.0
  0
LINE
  5
2A4
330
1F
100
AcDbEntity
  8
0
  6
Continuous
 62
     7
370
    25
100
AcDbLine
 10
1.878209432
 20
-1.7371853277
 30
0.0
 11
1.878209432
 21
-1.5859474426
 31
0.0
  0
LINE
  5
2A5
330
1F
100
AcDbEntity
  8
0
  6
Continuous
 62
     7
370
    25
100
AcDbLine
 10
1.9963874817
 20
-1.7615556007
 30
0.0
 11
1.9014342626
 21
-1.7615556007
 31
0.0
  0
LINE
  5
2A6
330
1F
100
AcDbEntity
  8
0
  6
Continuous
 62
     7
370
    25
100
AcDbLine
 10
1.9161275228
 20
-1.7286932553
 30
0.0
 11
1.9963874817
 21
-1.7286932553
 31
0.0
  0
LINE
  5
2A7
330
1F
100
AcDbEntity
  8
0
  6
Continuous
 62
     7
370
    25
100
AcDbLine
 10
1.9161275228
 20
-1.5859474426
 30
0.0
 11
1.9161275228
 21
-1.7286932553
 31
0.0
  0
LINE
  5
2A8
330
1F
100
AcDbEntity
  8
0
  6
Continuous
 62
     7
370
    25
100
AcDbLine
 10
2.0682738622
 20
-1.5669094011
 30
0.0
 11
2.1721536318
 21
-1.5669094011
 31
0.0
  0
LINE
  5
2A9
330
1F
100
AcDbEntity
  8
0
  6
Continuous
 62
     7
370
    25
100
AcDbLine
 10
2.0450490316
 20
-1.7373828178
 30
0.0
 11
2.0450490316
 21
-1.591082184
 31
0.0
  0
LINE
  5
2AA
330
1F
100
AcDbEntity
  8
0
  6
Continuous
 62
     7
370
    25
100
AcDbLine
 10
2.1752344767
 20
-1.7615556007
 30
0.0
 11
2.0682738622
 21
-1.7615556007
 31
0.0
  0
LINE
  5
2AB
330
1F
100
AcDbEntity
  8
0
  6
Continuous
 62
     7
370
    25
100
AcDbLine
 10
2.0829671224
 20
-1.731221128
 30
0.0
 11
2.1752344767
 21
-1.731221128
 31
0.0
  0
LINE
  5
2AC
330
1F
100
AcDbEntity
  8
0
  6
Continuous
 62
     7
370
    25
100
AcDbLine
 10
2.0829671224
 20
-1.6756079281
 30
0.0
 11
2.0829671224
 21
-1.731221128
 31
0.0
  0
LINE
  5
2AD
330
1F
100
AcDbEntity
  8
0
  6
Continuous
 62
     7
370
    25
100
AcDbLine
 10
2.1650834878
 20
-1.6756079281
 30
0.0
 11
2.0829671224
 21
-1.6756079281
 31
0.0
  0
LINE
  5
2AE
330
1F
100
AcDbEntity
  8
0
  6
Continuous
 62
     7
370
    25
100
AcDbLine
 10
2.0829671224
 20
-1.6452734555
 30
0.0
 11
2.1650834878
 21
-1.6452734555
 31
0.0
  0
LINE
  5
2AF
330
1F
100
AcDbEntity
  8
0
  6
Continuous
 62
     7
370
    25
100
AcDbLine
 10
2.0829671224
 20
-1.5972438738
 30
0.0
 11
2.0829671224
 21
-1.6452734555
 31
0.0
  0
LINE
  5
2B0
330
1F
100
AcDbEntity
  8
0
  6
Continuous
 62
     7
370
    25
100
AcDbLine
 10
2.1721536318
 20
-1.5972438738
 30
0.0
 11
2.0829671224
 21
-1.5972438738
 31
0.0
  0
LINE
  5
2B1
330
1F
100
AcDbEntity
  8
0
  6
Continuous
 62
     7
370
    25
100
AcDbLine
 10
1.678507487
 20
-1.7337884987
 30
0.0
 11
1.678507487
 21
-1.591082184
 31
0.0
  0
LINE
  5
2B2
330
1F
100
AcDbEntity
  8
0
  6
Continuous
 62
     7
370
    25
100
AcDbLine
 10
1.7549361388
 20
-1.7615556007
 30
0.0
 11
1.7035097281
 21
-1.7615556007
 31
0.0
  0
LINE
  5
2B3
330
1F
100
AcDbEntity
  8
0
  6
Continuous
 62
     7
370
    25
100
AcDbLine
 10
1.7017323176
 20
-1.5669094011
 30
0.0
 11
1.7535932064
 21
-1.5669094011
 31
0.0
  0
LINE
  5
2B4
330
1F
100
AcDbEntity
  8
0
  6
Continuous
 62
     7
370
    25
100
AcDbLine
 10
1.3818774223
 20
-1.5988237942
 30
0.0
 11
1.4324348768
 21
-1.7249804422
 31
0.0
  0
LINE
  5
2B5
330
1F
100
AcDbEntity
  8
0
  6
Continuous
 62
     7
370
    25
100
AcDbLine
 10
1.2645683289
 20
-1.7260468885
 30
0.0
 11
1.314059337
 21
-1.5990607823
 31
0.0
  0
LINE
  5
2B6
330
1F
100
AcDbEntity
  8
0
  6
Continuous
 62
     7
370
    25
100
AcDbLine
 10
1.3086481094
 20
-1.7160538917
 30
0.0
 11
1.2994055748
 21
-1.7401476786
 31
0.0
  0
LINE
  5
2B7
330
1F
100
AcDbEntity
  8
0
  6
Continuous
 62
     7
370
    25
100
AcDbLine
 10
1.3872886499
 20
-1.7160538917
 30
0.0
 11
1.3086481094
 21
-1.7160538917
 31
0.0
  0
LINE
  5
2B8
330
1F
100
AcDbEntity
  8
0
  6
Continuous
 62
     7
370
    25
100
AcDbLine
 10
1.3965311845
 20
-1.7396342044
 30
0.0
 11
1.3872886499
 21
-1.7160538917
 31
0.0
  0
LINE
  5
2B9
330
1F
100
AcDbEntity
  8
0
  6
Continuous
 62
     7
370
    25
100
AcDbLine
 10
0.8316701253
 20
-1.7371853277
 30
0.0
 11
0.8316701253
 21
-1.5859474426
 31
0.0
  0
LINE
  5
2BA
330
1F
100
AcDbEntity
  8
0
  6
Continuous
 62
     7
370
    25
100
AcDbLine
 10
0.9498481751
 20
-1.7615556007
 30
0.0
 11
0.854894956
 21
-1.7615556007
 31
0.0
  0
LINE
  5
2BB
330
1F
100
AcDbEntity
  8
0
  6
Continuous
 62
     7
370
    25
100
AcDbLine
 10
0.8695882161
 20
-1.7286932553
 30
0.0
 11
0.9498481751
 21
-1.7286932553
 31
0.0
  0
LINE
  5
2BC
330
1F
100
AcDbEntity
  8
0
  6
Continuous
 62
     7
370
    25
100
AcDbLine
 10
0.8695882161
 20
-1.5859474426
 30
0.0
 11
0.8695882161
 21
-1.7286932553
 31
0.0
  0
LINE
  5
2BD
330
1F
100
AcDbEntity
  8
0
  6
Continuous
 62
     7
370
    25
100
AcDbLine
 10
0.6243845622
 20
-1.5859474426
 30
0.0
 11
0.6243845622
 21
-1.6803476895
 31
0.0
  0
LINE
  5
2BE
330
1F
100
AcDbEntity
  8
0
  6
Continuous
 62
     7
370
    25
100
AcDbLine
 10
0.5864664714
 20
-1.6836655224
 30
0.0
 11
0.5864664714
 21
-1.5860264386
 31
0.0
  0
LINE
  5
2BF
330
1F
100
AcDbEntity
  8
0
  6
Continuous
 62
     7
370
    25
100
AcDbLine
 10
0.5005187988
 20
-1.5860264386
 30
0.0
 11
0.5005187988
 21
-1.6828360642
 31
0.0
  0
LINE
  5
2C0
330
1F
100
AcDbEntity
  8
0
  6
Continuous
 62
     7
370
    25
100
AcDbLine
 10
0.462600708
 20
-1.6799132114
 30
0.0
 11
0.462600708
 21
-1.5858684465
 31
0.0
  0
LINE
  5
2C1
330
1F
100
AcDbEntity
  8
0
  6
Continuous
 62
     7
370
    25
100
AcDbLine
 10
0.1777015527
 20
-1.6831915463
 30
0.0
 11
0.1263936361
 21
-1.6831915463
 31
0.0
  0
LINE
  5
2C2
330
1F
100
AcDbEntity
  8
0
  6
Continuous
 62
     7
370
    25
100
AcDbLine
 10
0.1777015527
 20
-1.6478013282
 30
0.0
 11
0.1777015527
 21
-1.6831915463
 31
0.0
  0
LINE
  5
2C3
330
1F
100
AcDbEntity
  8
0
  6
Continuous
 62
     7
370
    25
100
AcDbLine
 10
0.1263936361
 20
-1.6478013282
 30
0.0
 11
0.1777015527
 21
-1.6478013282
 31
0.0
  0
LINE
  5
2C4
330
1F
100
AcDbEntity
  8
0
  6
Continuous
 62
     7
370
    25
100
AcDbLine
 10
0.1263936361
 20
-1.5972438738
 30
0.0
 11
0.1263936361
 21
-1.6478013282
 31
0.0
  0
LINE
  5
2C5
330
1F
100
AcDbEntity
  8
0
  6
Continuous
 62
     7
370
    25
100
AcDbLine
 10
0.091003418
 20
-1.5972438738
 30
0.0
 11
0.1263936361
 21
-1.5972438738
 31
0.0
  0
LINE
  5
2C6
330
1F
100
AcDbEntity
  8
0
  6
Continuous
 62
     7
370
    25
100
AcDbLine
 10
0.091003418
 20
-1.6478013282
 30
0.0
 11
0.091003418
 21
-1.5972438738
 31
0.0
  0
LINE
  5
2C7
330
1F
100
AcDbEntity
  8
0
  6
Continuous
 62
     7
370
    25
100
AcDbLine
 10
0.0399719874
 20
-1.6478013282
 30
0.0
 11
0.091003418
 21
-1.6478013282
 31
0.0
  0
LINE
  5
2C8
330
1F
100
AcDbEntity
  8
0
  6
Continuous
 62
     7
370
    25
100
AcDbLine
 10
0.0399719874
 20
-1.6831915463
 30
0.0
 11
0.0399719874
 21
-1.6478013282
 31
0.0
  0
LINE
  5
2C9
330
1F
100
AcDbEntity
  8
0
  6
Continuous
 62
     7
370
    25
100
AcDbLine
 10
0.091003418
 20
-1.6831915463
 30
0.0
 11
0.0399719874
 21
-1.6831915463
 31
0.0
  0
LINE
  5
2CA
330
1F
100
AcDbEntity
  8
0
  6
Continuous
 62
     7
370
    25
100
AcDbLine
 10
0.091003418
 20
-1.7337490007
 30
0.0
 11
0.091003418
 21
-1.6831915463
 31
0.0
  0
LINE
  5
2CB
330
1F
100
AcDbEntity
  8
0
  6
Continuous
 62
     7
370
    25
100
AcDbLine
 10
0.1263936361
 20
-1.7337490007
 30
0.0
 11
0.091003418
 21
-1.7337490007
 31
0.0
  0
LINE
  5
2CC
330
1F
100
AcDbEntity
  8
0
  6
Continuous
 62
     7
370
    25
100
AcDbLine
 10
0.1263936361
 20
-1.6831915463
 30
0.0
 11
0.1263936361
 21
-1.7337490007
 31
0.0
  0
LINE
  5
2CD
330
1F
100
AcDbEntity
  8
0
  6
Continuous
 62
     7
370
    25
100
AcDbLine
 10
-0.7838775317
 20
-1.5669094011
 30
0.0
 11
-0.6595772902
 21
-1.5669094011
 31
0.0
  0
LINE
  5
2CE
330
1F
100
AcDbEntity
  8
0
  6
Continuous
 62
     7
370
    25
100
AcDbLine
 10
-0.7406667074
 20
-1.5997717465
 30
0.0
 11
-0.7838775317
 21
-1.5997717465
 31
0.0
  0
LINE
  5
2CF
330
1F
100
AcDbEntity
  8
0
  6
Continuous
 62
     7
370
    25
100
AcDbLine
 10
-0.7406667074
 20
-1.7402266746
 30
0.0
 11
-0.7406667074
 21
-1.5997717465
 31
0.0
  0
LINE
  5
2D0
330
1F
100
AcDbEntity
  8
0
  6
Continuous
 62
     7
370
    25
100
AcDbLine
 10
-0.7027486165
 20
-1.5997717465
 30
0.0
 11
-0.7027486165
 21
-1.7402266746
 31
0.0
  0
LINE
  5
2D1
330
1F
100
AcDbEntity
  8
0
  6
Continuous
 62
     7
370
    25
100
AcDbLine
 10
-0.6595772902
 20
-1.5997717465
 30
0.0
 11
-0.7027486165
 21
-1.5997717465
 31
0.0
  0
LINE
  5
2D2
330
1F
100
AcDbEntity
  8
0
  6
Continuous
 62
     7
370
    25
100
AcDbLine
 10
-1.1642433802
 20
-1.5669094011
 30
0.0
 11
-1.1013625463
 21
-1.5669094011
 31
0.0
  0
LINE
  5
2D3
330
1F
100
AcDbEntity
  8
0
  6
Continuous
 62
     7
370
    25
100
AcDbLine
 10
-1.188100179
 20
-1.7373828178
 30
0.0
 11
-1.188100179
 21
-1.591082184
 31
0.0
  0
LINE
  5
2D4
330
1F
100
AcDbEntity
  8
0
  6
Continuous
 62
     7
370
    25
100
AcDbLine
 10
-1.1049173673
 20
-1.7615556007
 30
0.0
 11
-1.1642433802
 21
-1.7615556007
 31
0.0
  0
LINE
  5
2D5
330
1F
100
AcDbEntity
  8
0
  6
Continuous
 62
     7
370
    25
100
AcDbLine
 10
-1.8863065243
 20
-1.7391602283
 30
0.0
 11
-1.9021847248
 21
-1.7130520428
 31
0.0
  0
LINE
  5
2D6
330
1F
100
AcDbEntity
  8
0
  6
Continuous
 62
     7
370
    25
100
AcDbLine
 10
-1.9757695198
 20
-1.5669094011
 30
0.0
 11
-1.9127306938
 21
-1.5669094011
 31
0.0
  0
LINE
  5
2D7
330
1F
100
AcDbEntity
  8
0
  6
Continuous
 62
     7
370
    25
100
AcDbLine
 10
-1.9995473226
 20
-1.7401476786
 30
0.0
 11
-1.9995473226
 21
-1.59096369
 31
0.0
  0
LINE
  5
2D8
330
1F
100
AcDbEntity
  8
0
  6
Continuous
 62
     7
370
    25
100
AcDbLine
 10
-1.9616292318
 20
-1.6781358009
 30
0.0
 11
-1.9616292318
 21
-1.7402266746
 31
0.0
  0
LINE
  5
2D9
330
1F
100
AcDbEntity
  8
0
  6
Continuous
 62
     7
370
    25
100
AcDbLine
 10
-1.9479629199
 20
-1.6781358009
 30
0.0
 11
-1.9616292318
 21
-1.6781358009
 31
0.0
  0
LINE
  5
2DA
330
1F
100
AcDbEntity
  8
0
  6
Continuous
 62
     7
370
    25
100
AcDbLine
 10
-1.9616292318
 20
-1.6503292009
 30
0.0
 11
-1.9266734918
 21
-1.6503292009
 31
0.0
  0
LINE
  5
2DB
330
1F
100
AcDbEntity
  8
0
  6
Continuous
 62
     7
370
    25
100
AcDbLine
 10
-1.9616292318
 20
-1.5972438738
 30
0.0
 11
-1.9616292318
 21
-1.6503292009
 31
0.0
  0
LINE
  5
2DC
330
1F
100
AcDbEntity
  8
0
  6
Continuous
 62
     7
370
    25
100
AcDbLine
 10
-1.9256070455
 20
-1.5972438738
 30
0.0
 11
-1.9616292318
 21
-1.5972438738
 31
0.0
  0
LINE
  5
2DD
330
1F
100
AcDbEntity
  8
0
  6
Continuous
 62
     7
370
    25
100
AcDbLine
 10
1.7164255778
 20
-1.731221128
 30
0.0
 11
1.7467995485
 21
-1.731221128
 31
0.0
  0
LINE
  5
2DE
330
1F
100
AcDbEntity
  8
0
  6
Continuous
 62
     7
370
    25
100
AcDbLine
 10
1.7164255778
 20
-1.5972438738
 30
0.0
 11
1.7164255778
 21
-1.731221128
 31
0.0
  0
LINE
  5
2DF
330
1F
100
AcDbEntity
  8
0
  6
Continuous
 62
     7
370
    25
100
AcDbLine
 10
1.7428892454
 20
-1.5972438738
 30
0.0
 11
1.7164255778
 21
-1.5972438738
 31
0.0
  0
LINE
  5
2E0
330
1F
100
AcDbEntity
  8
0
  6
Continuous
 62
     7
370
    25
100
AcDbLine
 10
-2.1436360677
 20
-1.6553849464
 30
0.0
 11
-2.1173698902
 21
-1.6553849464
 31
0.0
  0
LINE
  5
2E1
330
1F
100
AcDbEntity
  8
0
  6
Continuous
 62
     7
370
    25
100
AcDbLine
 10
-2.1436360677
 20
-1.5972438738
 30
0.0
 11
-2.1436360677
 21
-1.6553849464
 31
0.0
  0
LINE
  5
2E2
330
1F
100
AcDbEntity
  8
0
  6
Continuous
 62
     7
370
    25
100
AcDbLine
 10
-2.1173698902
 20
-1.5972438738
 30
0.0
 11
-2.1436360677
 21
-1.5972438738
 31
0.0
  0
LINE
  5
2E3
330
1F
100
AcDbEntity
  8
0
  6
Continuous
 62
     7
370
    25
100
AcDbLine
 10
-1.1501820882
 20
-1.6478013282
 30
0.0
 11
-1.1135674318
 21
-1.6478013282
 31
0.0
  0
LINE
  5
2E4
330
1F
100
AcDbEntity
  8
0
  6
Continuous
 62
     7
370
    25
100
AcDbLine
 10
-1.1501820882
 20
-1.5972438738
 30
0.0
 11
-1.1501820882
 21
-1.6478013282
 31
0.0
  0
LINE
  5
2E5
330
1F
100
AcDbEntity
  8
0
  6
Continuous
 62
     7
370
    25
100
AcDbLine
 10
-1.1177147229
 20
-1.5972438738
 30
0.0
 11
-1.1501820882
 21
-1.5972438738
 31
0.0
  0
LINE
  5
2E6
330
1F
100
AcDbEntity
  8
0
  6
Continuous
 62
     7
370
    25
100
AcDbLine
 10
0.3185119629
 20
-1.6553849464
 30
0.0
 11
0.3447781404
 21
-1.6553849464
 31
0.0
  0
LINE
  5
2E7
330
1F
100
AcDbEntity
  8
0
  6
Continuous
 62
     7
370
    25
100
AcDbLine
 10
0.3185119629
 20
-1.5972438738
 30
0.0
 11
0.3185119629
 21
-1.6553849464
 31
0.0
  0
LINE
  5
2E8
330
1F
100
AcDbEntity
  8
0
  6
Continuous
 62
     7
370
    25
100
AcDbLine
 10
0.3447781404
 20
-1.5972438738
 30
0.0
 11
0.3185119629
 21
-1.5972438738
 31
0.0
  0
LINE
  5
2E9
330
1F
100
AcDbEntity
  8
0
  6
Continuous
 62
     7
370
    25
100
AcDbLine
 10
-1.1501820882
 20
-1.731221128
 30
0.0
 11
-1.10724775
 21
-1.731221128
 31
0.0
  0
LINE
  5
2EA
330
1F
100
AcDbEntity
  8
0
  6
Continuous
 62
     7
370
    25
100
AcDbLine
 10
-1.1501820882
 20
-1.6756079281
 30
0.0
 11
-1.1501820882
 21
-1.731221128
 31
0.0
  0
LINE
  5
2EB
330
1F
100
AcDbEntity
  8
0
  6
Continuous
 62
     7
370
    25
100
AcDbLine
 10
-1.1085906823
 20
-1.6756079281
 30
0.0
 11
-1.1501820882
 21
-1.6756079281
 31
0.0
  0
LINE
  5
2EC
330
1F
100
AcDbEntity
  8
0
  6
Continuous
 62
     7
370
    25
100
AcDbLine
 10
1.3767426809
 20
-1.685719419
 30
0.0
 11
1.3475536505
 21
-1.6048274919
 31
0.0
  0
LINE
  5
2ED
330
1F
100
AcDbEntity
  8
0
  6
Continuous
 62
     7
370
    25
100
AcDbLine
 10
1.3189175924
 20
-1.685719419
 30
0.0
 11
1.3767426809
 21
-1.685719419
 31
0.0
  0
LINE
  5
2EE
330
1F
100
AcDbEntity
  8
0
  6
Continuous
 62
     7
370
    25
100
AcDbLine
 10
1.3475536505
 20
-1.6048274919
 30
0.0
 11
1.3189175924
 21
-1.685719419
 31
0.0
  0
LINE
  5
2EF
330
1F
100
AcDbEntity
  8
0
  6
Continuous
 62
     7
370
    25
100
AcDbLine
 10
-0.1580496362
 20
0.53375
 30
0.0
 11
0.1580496362
 21
0.53375
 31
0.0
  0
LINE
  5
2F0
330
1F
100
AcDbEntity
  8
0
  6
Continuous
 62
     7
370
    25
100
AcDbLine
 10
11.72
 20
-1.455980315
 30
0.0
 11
-11.72
 21
-1.455980315
 31
0.0
  0
LINE
  5
2F1
330
1F
100
AcDbEntity
  8
0
  6
Continuous
 62
     7
370
    25
100
AcDbLine
 10
-11.75
 20
-1.425980315
 30
0.0
 11
11.75
 21
-1.425980315
 31
0.0
  0
LINE
  5
2F2
330
1F
100
AcDbEntity
  8
0
  6
Continuous
 62
     7
370
    25
100
AcDbLine
 10
11.75
 20
-1.375
 30
0.0
 11
11.75
 21
-1.425980315
 31
0.0
  0
LINE
  5
2F3
330
1F
100
AcDbEntity
  8
0
  6
Continuous
 62
     7
370
    25
100
AcDbLine
 10
-11.75
 20
-1.425980315
 30
0.0
 11
-11.75
 21
-1.375
 31
0.0
  0
LINE
  5
2F4
330
1F
100
AcDbEntity
  8
0
  6
Continuous
 62
     7
370
    25
100
AcDbLine
 10
-0.0042325897
 20
-0.3774436868
 30
0.0
 11
0.0036104421
 21
-0.3770844897
 31
0.0
  0
LINE
  5
2F5
330
1F
100
AcDbEntity
  8
0
  6
Continuous
 62
     7
370
    25
100
AcDbLine
 10
9.0700125402
 20
-0.0227790437
 30
0.0
 11
9.0711520727
 21
-0.0235235297
 31
0.0
  0
LINE
  5
2F6
330
1F
100
AcDbEntity
  8
0
  6
Continuous
 62
     7
370
    25
100
AcDbLine
 10
9.0684720181
 20
0.0304558145
 30
0.0
 11
9.067411835
 21
0.0296021135
 31
0.0
  0
LINE
  5
2F7
330
1F
100
AcDbEntity
  8
0
  6
Continuous
 62
     7
370
    25
100
AcDbLine
 10
9.0604950185
 20
0.0483919847
 30
0.0
 11
9.0691439665
 21
0.0343671423
 31
0.0
  0
LINE
  5
2F8
330
1F
100
AcDbEntity
  8
0
  6
Continuous
 62
     7
370
    25
100
AcDbLine
 10
9.0601814285
 20
0.0487814219
 30
0.0
 11
9.0604950185
 21
0.0483919847
 31
0.0
  0
LINE
  5
2F9
330
1F
100
AcDbEntity
  8
0
  6
Continuous
 62
     7
370
    25
100
AcDbLine
 10
9.0483240497
 20
0.0602227099
 30
0.0
 11
9.0601814285
 21
0.0487814219
 31
0.0
  0
LINE
  5
2FA
330
1F
100
AcDbEntity
  8
0
  6
Continuous
 62
     7
370
    25
100
AcDbLine
 10
9.0432992227
 20
0.059546771
 30
0.0
 11
9.0443594058
 21
0.060400472
 31
0.0
  0
LINE
  5
2FB
330
1F
100
AcDbEntity
  8
0
  6
Continuous
 62
     7
370
    25
100
AcDbLine
 10
8.9921938164
 20
0.0745321233
 30
0.0
 11
8.9926781197
 21
0.0732600211
 31
0.0
  0
LINE
  5
2FC
330
1F
100
AcDbEntity
  8
0
  6
Continuous
 62
     7
370
    25
100
AcDbLine
 10
8.9726704764
 20
0.0724881272
 30
0.0
 11
8.988681566
 21
0.0763798509
 31
0.0
  0
LINE
  5
2FD
330
1F
100
AcDbEntity
  8
0
  6
Continuous
 62
     7
370
    25
100
AcDbLine
 10
8.972203195
 20
0.0723102281
 30
0.0
 11
8.9726704764
 21
0.0724881272
 31
0.0
  0
LINE
  5
2FE
330
1F
100
AcDbEntity
  8
0
  6
Continuous
 62
     7
370
    25
100
AcDbLine
 10
8.9576577519
 20
0.0645687432
 30
0.0
 11
8.972203195
 21
0.0723102281
 31
0.0
  0
LINE
  5
2FF
330
1F
100
AcDbEntity
  8
0
  6
Continuous
 62
     7
370
    25
100
AcDbLine
 10
8.9567478511
 20
0.0595809721
 30
0.0
 11
8.9562635478
 21
0.0608530743
 31
0.0
  0
LINE
  5
300
330
1F
100
AcDbEntity
  8
0
  6
Continuous
 62
     7
370
    25
100
AcDbLine
 10
8.9267034951
 20
0.015607571
 30
0.0
 11
8.9280629941
 21
0.0156750696
 31
0.0
  0
LINE
  5
301
330
1F
100
AcDbEntity
  8
0
  6
Continuous
 62
     7
370
    25
100
AcDbLine
 10
8.922614407
 20
-0.0035918583
 30
0.0
 11
8.9238608567
 21
0.0128382016
 31
0.0
  0
LINE
  5
302
330
1F
100
AcDbEntity
  8
0
  6
Continuous
 62
     7
370
    25
100
AcDbLine
 10
8.9226392013
 20
-0.0040912432
 30
0.0
 11
8.922614407
 21
-0.0035918583
 31
0.0
  0
LINE
  5
303
330
1F
100
AcDbEntity
  8
0
  6
Continuous
 62
     7
370
    25
100
AcDbLine
 10
8.9255070018
 20
-0.0203170321
 30
0.0
 11
8.9226392013
 21
-0.0040912432
 31
0.0
  0
LINE
  5
304
330
1F
100
AcDbEntity
  8
0
  6
Continuous
 62
     7
370
    25
100
AcDbLine
 10
8.9299694792
 20
-0.0227237051
 30
0.0
 11
8.9286099801
 21
-0.0227912038
 31
0.0
  0
LINE
  5
305
330
1F
100
AcDbEntity
  8
0
  6
Continuous
 62
     7
370
    25
100
AcDbLine
 10
8.9625064523
 20
-0.064886114
 30
0.0
 11
8.9628623656
 21
-0.0635722953
 31
0.0
  0
LINE
  5
306
330
1F
100
AcDbEntity
  8
0
  6
Continuous
 62
     7
370
    25
100
AcDbLine
 10
8.9795025969
 20
-0.0747080178
 30
0.0
 11
8.9642618555
 21
-0.068445406
 31
0.0
  0
LINE
  5
307
330
1F
100
AcDbEntity
  8
0
  6
Continuous
 62
     7
370
    25
100
AcDbLine
 10
8.979985202
 20
-0.0748387554
 30
0.0
 11
8.9795025969
 21
-0.0747080178
 31
0.0
  0
LINE
  5
308
330
1F
100
AcDbEntity
  8
0
  6
Continuous
 62
     7
370
    25
100
AcDbLine
 10
8.9963030433
 20
-0.0771253595
 30
0.0
 11
8.979985202
 21
-0.0748387554
 31
0.0
  0
LINE
  5
309
330
1F
100
AcDbEntity
  8
0
  6
Continuous
 62
     7
370
    25
100
AcDbLine
 10
8.9999709068
 20
-0.0736249943
 30
0.0
 11
8.9996149935
 21
-0.0749388129
 31
0.0
  0
LINE
  5
30A
330
1F
100
AcDbEntity
  8
0
  6
Continuous
 62
     7
370
    25
100
AcDbLine
 10
9.0501242181
 20
-0.0557093948
 30
0.0
 11
9.0489846856
 21
-0.0549649089
 31
0.0
  0
LINE
  5
30B
330
1F
100
AcDbEntity
  8
0
  6
Continuous
 62
     7
370
    25
100
AcDbLine
 10
9.0647175012
 20
-0.0425802359
 30
0.0
 11
9.0540517553
 21
-0.0551397888
 31
0.0
  0
LINE
  5
30C
330
1F
100
AcDbEntity
  8
0
  6
Continuous
 62
     7
370
    25
100
AcDbLine
 10
9.0649909733
 20
-0.0421616513
 30
0.0
 11
9.0647175012
 21
-0.0425802359
 31
0.0
  0
LINE
  5
30D
330
1F
100
AcDbEntity
  8
0
  6
Continuous
 62
     7
370
    25
100
AcDbLine
 10
9.0722081533
 20
-0.0273490615
 30
0.0
 11
9.0649909733
 21
-0.0421616513
 31
0.0
  0
LINE
  5
30E
330
1F
100
AcDbEntity
  8
0
  6
Continuous
 62
     7
370
    25
100
AcDbLine
 10
-8.9299874598
 20
-0.0227790437
 30
0.0
 11
-8.9288479273
 21
-0.0235235297
 31
0.0
  0
LINE
  5
30F
330
1F
100
AcDbEntity
  8
0
  6
Continuous
 62
     7
370
    25
100
AcDbLine
 10
-8.9315279819
 20
0.0304558145
 30
0.0
 11
-8.932588165
 21
0.0296021135
 31
0.0
  0
LINE
  5
310
330
1F
100
AcDbEntity
  8
0
  6
Continuous
 62
     7
370
    25
100
AcDbLine
 10
-8.9395049815
 20
0.0483919847
 30
0.0
 11
-8.9308560335
 21
0.0343671423
 31
0.0
  0
LINE
  5
311
330
1F
100
AcDbEntity
  8
0
  6
Continuous
 62
     7
370
    25
100
AcDbLine
 10
-8.9398185715
 20
0.0487814219
 30
0.0
 11
-8.9395049815
 21
0.0483919847
 31
0.0
  0
LINE
  5
312
330
1F
100
AcDbEntity
  8
0
  6
Continuous
 62
     7
370
    25
100
AcDbLine
 10
-8.9516759503
 20
0.0602227099
 30
0.0
 11
-8.9398185715
 21
0.0487814219
 31
0.0
  0
LINE
  5
313
330
1F
100
AcDbEntity
  8
0
  6
Continuous
 62
     7
370
    25
100
AcDbLine
 10
-8.9567007773
 20
0.059546771
 30
0.0
 11
-8.9556405942
 21
0.060400472
 31
0.0
  0
LINE
  5
314
330
1F
100
AcDbEntity
  8
0
  6
Continuous
 62
     7
370
    25
100
AcDbLine
 10
-9.0078061836
 20
0.0745321233
 30
0.0
 11
-9.0073218803
 21
0.0732600211
 31
0.0
  0
LINE
  5
315
330
1F
100
AcDbEntity
  8
0
  6
Continuous
 62
     7
370
    25
100
AcDbLine
 10
-9.0273295236
 20
0.0724881272
 30
0.0
 11
-9.011318434
 21
0.0763798509
 31
0.0
  0
LINE
  5
316
330
1F
100
AcDbEntity
  8
0
  6
Continuous
 62
     7
370
    25
100
AcDbLine
 10
-9.027796805
 20
0.0723102281
 30
0.0
 11
-9.0273295236
 21
0.0724881272
 31
0.0
  0
LINE
  5
317
330
1F
100
AcDbEntity
  8
0
  6
Continuous
 62
     7
370
    25
100
AcDbLine
 10
-9.0423422481
 20
0.0645687432
 30
0.0
 11
-9.027796805
 21
0.0723102281
 31
0.0
  0
LINE
  5
318
330
1F
100
AcDbEntity
  8
0
  6
Continuous
 62
     7
370
    25
100
AcDbLine
 10
-9.0432521489
 20
0.0595809721
 30
0.0
 11
-9.0437364522
 21
0.0608530743
 31
0.0
  0
LINE
  5
319
330
1F
100
AcDbEntity
  8
0
  6
Continuous
 62
     7
370
    25
100
AcDbLine
 10
-9.0732965049
 20
0.015607571
 30
0.0
 11
-9.0719370059
 21
0.0156750696
 31
0.0
  0
LINE
  5
31A
330
1F
100
AcDbEntity
  8
0
  6
Continuous
 62
     7
370
    25
100
AcDbLine
 10
-9.077385593
 20
-0.0035918583
 30
0.0
 11
-9.0761391433
 21
0.0128382016
 31
0.0
  0
LINE
  5
31B
330
1F
100
AcDbEntity
  8
0
  6
Continuous
 62
     7
370
    25
100
AcDbLine
 10
-9.0773607987
 20
-0.0040912432
 30
0.0
 11
-9.077385593
 21
-0.0035918583
 31
0.0
  0
LINE
  5
31C
330
1F
100
AcDbEntity
  8
0
  6
Continuous
 62
     7
370
    25
100
AcDbLine
 10
-9.0744929982
 20
-0.0203170321
 30
0.0
 11
-9.0773607987
 21
-0.0040912432
 31
0.0
  0
LINE
  5
31D
330
1F
100
AcDbEntity
  8
0
  6
Continuous
 62
     7
370
    25
100
AcDbLine
 10
-9.0700305208
 20
-0.0227237051
 30
0.0
 11
-9.0713900199
 21
-0.0227912038
 31
0.0
  0
LINE
  5
31E
330
1F
100
AcDbEntity
  8
0
  6
Continuous
 62
     7
370
    25
100
AcDbLine
 10
-9.0374935477
 20
-0.064886114
 30
0.0
 11
-9.0371376344
 21
-0.0635722953
 31
0.0
  0
LINE
  5
31F
330
1F
100
AcDbEntity
  8
0
  6
Continuous
 62
     7
370
    25
100
AcDbLine
 10
-9.0204974031
 20
-0.0747080178
 30
0.0
 11
-9.0357381445
 21
-0.068445406
 31
0.0
  0
LINE
  5
320
330
1F
100
AcDbEntity
  8
0
  6
Continuous
 62
     7
370
    25
100
AcDbLine
 10
-9.020014798
 20
-0.0748387554
 30
0.0
 11
-9.0204974031
 21
-0.0747080178
 31
0.0
  0
LINE
  5
321
330
1F
100
AcDbEntity
  8
0
  6
Continuous
 62
     7
370
    25
100
AcDbLine
 10
-9.0036969567
 20
-0.0771253595
 30
0.0
 11
-9.020014798
 21
-0.0748387554
 31
0.0
  0
LINE
  5
322
330
1F
100
AcDbEntity
  8
0
  6
Continuous
 62
     7
370
    25
100
AcDbLine
 10
-9.0000290932
 20
-0.0736249943
 30
0.0
 11
-9.0003850065
 21
-0.0749388129
 31
0.0
  0
LINE
  5
323
330
1F
100
AcDbEntity
  8
0
  6
Continuous
 62
     7
370
    25
100
AcDbLine
 10
-8.9498757819
 20
-0.0557093948
 30
0.0
 11
-8.9510153144
 21
-0.0549649089
 31
0.0
  0
LINE
  5
324
330
1F
100
AcDbEntity
  8
0
  6
Continuous
 62
     7
370
    25
100
AcDbLine
 10
-8.9352824988
 20
-0.0425802359
 30
0.0
 11
-8.9459482447
 21
-0.0551397888
 31
0.0
  0
LINE
  5
325
330
1F
100
AcDbEntity
  8
0
  6
Continuous
 62
     7
370
    25
100
AcDbLine
 10
-8.9350090267
 20
-0.0421616513
 30
0.0
 11
-8.9352824988
 21
-0.0425802359
 31
0.0
  0
LINE
  5
326
330
1F
100
AcDbEntity
  8
0
  6
Continuous
 62
     7
370
    25
100
AcDbLine
 10
-8.9277918467
 20
-0.0273490615
 30
0.0
 11
-8.9350090267
 21
-0.0421616513
 31
0.0
  0
LINE
  5
327
330
1F
100
AcDbEntity
  8
0
  6
Continuous
 62
     7
370
    25
100
AcDbLine
 10
0.0476313972
 20
-0.4025
 30
0.0
 11
-0.0476313972
 21
-0.4025
 31
0.0
  0
LINE
  5
328
330
1F
100
AcDbEntity
  8
0
  6
Continuous
 62
     7
370
    25
100
AcDbLine
 10
11.1583484861
 20
-1.515980315
 30
0.0
 11
9.0916515139
 21
-1.515980315
 31
0.0
  0
LINE
  5
329
330
1F
100
AcDbEntity
  8
0
  6
Continuous
 62
     7
370
    25
100
AcDbLine
 10
-9.5
 20
1.375
 30
0.0
 11
-9.5
 21
1.4497
 31
0.0
  0
LINE
  5
32A
330
1F
100
AcDbEntity
  8
0
  6
Continuous
 62
     7
370
    25
100
AcDbLine
 10
-8.5
 20
1.4497
 30
0.0
 11
-8.5
 21
1.375
 31
0.0
  0
LINE
  5
32B
330
1F
100
AcDbEntity
  8
0
  6
Continuous
 62
     7
370
    25
100
AcDbLine
 10
-11.625
 20
1.4497
 30
0.0
 11
11.625
 21
1.4497
 31
0.0
  0
LINE
  5
32C
330
1F
100
AcDbEntity
  8
0
  6
Continuous
 62
     7
370
    25
100
AcDbLine
 10
9.5
 20
1.4497
 30
0.0
 11
9.5
 21
1.375
 31
0.0
  0
LINE
  5
32D
330
1F
100
AcDbEntity
  8
0
  6
Continuous
 62
     7
370
    25
100
AcDbLine
 10
8.5
 20
1.375
 30
0.0
 11
8.5
 21
1.4497
 31
0.0
  0
LINE
  5
32E
330
1F
100
AcDbEntity
  8
0
  6
Continuous
 62
     7
370
    25
100
AcDbLine
 10
-11.625
 20
1.375
 30
0.0
 11
-11.625
 21
1.4497
 31
0.0
  0
LINE
  5
32F
330
1F
100
AcDbEntity
  8
0
  6
Continuous
 62
     7
370
    25
100
AcDbLine
 10
-10.75
 20
1.4497
 30
0.0
 11
-10.75
 21
-1.455980315
 31
0.0
  0
LINE
  5
330
330
1F
100
AcDbEntity
  8
0
  6
Continuous
 62
     7
370
    25
100
AcDbLine
 10
11.625
 20
1.375
 30
0.0
 11
11.625
 21
1.4497
 31
0.0
  0
LINE
  5
331
330
1F
100
AcDbEntity
  8
0
  6
Continuous
 62
     7
370
    25
100
AcDbLine
 10
10.75
 20
-1.455980315
 30
0.0
 11
10.75
 21
1.4497
 31
0.0
  0
LINE
  5
332
330
1F
100
AcDbEntity
  8
0
  6
Continuous
 62
     7
370
    25
100
AcDbLine
 10
0.1688749537
 20
-0.5275
 30
0.0
 11
-0.1688749537
 21
-0.5275
 31
0.0
  0
LINE
  5
333
330
1F
100
AcDbEntity
  8
0
  6
Continuous
 62
     7
370
    25
100
AcDbLine
 10
-12.0
 20
1.375
 30
0.0
 11
-12.0
 21
-1.375
 31
0.0
  0
LINE
  5
334
330
1F
100
AcDbEntity
  8
0
  6
Continuous
 62
     7
370
    25
100
AcDbLine
 10
0.0
 20
1.375
 30
0.0
 11
0.0
 21
0.625
 31
0.0
  0
LINE
  5
335
330
1F
100
AcDbEntity
  8
0
  6
Continuous
 62
     7
370
    25
100
AcDbLine
 10
0.0
 20
0.625
 30
0.0
 11
-0.2165063509
 21
0.5
 31
0.0
  0
LINE
  5
336
330
1F
100
AcDbEntity
  8
0
  6
Continuous
 62
     7
370
    25
100
AcDbLine
 10
-0.2165063509
 20
0.5
 30
0.0
 11
0.0
 21
0.375
 31
0.0
  0
LINE
  5
337
330
1F
100
AcDbEntity
  8
0
  6
Continuous
 62
     7
370
    25
100
AcDbLine
 10
0.0
 20
-0.375
 30
0.0
 11
0.0
 21
0.375
 31
0.0
  0
LINE
  5
338
330
1F
100
AcDbEntity
  8
0
  6
Continuous
 62
     7
370
    25
100
AcDbLine
 10
0.0
 20
-0.375
 30
0.0
 11
-0.2165063509
 21
-0.5
 31
0.0
  0
LINE
  5
339
330
1F
100
AcDbEntity
  8
0
  6
Continuous
 62
     7
370
    25
100
AcDbLine
 10
-0.2165063509
 20
-0.5
 30
0.0
 11
0.0
 21
-0.625
 31
0.0
  0
LINE
  5
33A
330
1F
100
AcDbEntity
  8
0
  6
Continuous
 62
     7
370
    25
100
AcDbLine
 10
0.0
 20
-0.625
 30
0.0
 11
0.0
 21
-1.375
 31
0.0
  0
LINE
  5
33B
330
1F
100
AcDbEntity
  8
0
  6
Continuous
 62
     7
370
    25
100
AcDbLine
 10
12.0
 20
1.375
 30
0.0
 11
-12.0
 21
1.375
 31
0.0
  0
LINE
  5
33C
330
1F
100
AcDbEntity
  8
0
  6
Continuous
 62
     7
370
    25
100
AcDbLine
 10
12.0
 20
-1.375
 30
0.0
 11
12.0
 21
1.375
 31
0.0
  0
LINE
  5
33D
330
1F
100
AcDbEntity
  8
0
  6
Continuous
 62
     7
370
    25
100
AcDbLine
 10
-12.0
 20
-1.375
 30
0.0
 11
12.0
 21
-1.375
 31
0.0
  0
LINE
  5
33E
330
1F
100
AcDbEntity
  8
0
  6
Continuous
 62
     7
370
    25
100
AcDbLine
 10
0.0
 20
-0.625
 30
0.0
 11
0.2165063509
 21
-0.5
 31
0.0
  0
LINE
  5
33F
330
1F
100
AcDbEntity
  8
0
  6
Continuous
 62
     7
370
    25
100
AcDbLine
 10
0.2165063509
 20
-0.5
 30
0.0
 11
0.0
 21
-0.375
 31
0.0
  0
LINE
  5
340
330
1F
100
AcDbEntity
  8
0
  6
Continuous
 62
     7
370
    25
100
AcDbLine
 10
0.0
 20
0.375
 30
0.0
 11
0.2165063509
 21
0.5
 31
0.0
  0
LINE
  5
341
330
1F
100
AcDbEntity
  8
0
  6
Continuous
 62
     7
370
    25
100
AcDbLine
 10
0.2165063509
 20
0.5
 30
0.0
 11
0.0
 21
0.625
 31
0.0
  0
LINE
  5
342
330
1F
100
AcDbEntity
  8
0
  6
Continuous
 62
     7
370
    25
100
AcDbLine
 10
0.1926906523
 20
0.51375
 30
0.0
 11
-0.1926906523
 21
0.51375
 31
0.0
  0
LINE
  5
343
330
1F
100
AcDbEntity
  8
0
  6
Continuous
 62
     7
370
    25
100
AcDbLine
 10
0.0129903811
 20
-0.6175
 30
0.0
 11
-0.0129903811
 21
-0.6175
 31
0.0
  0
ARC
  5
344
330
1F
100
AcDbEntity
  8
0
  6
Continuous
 62
     7
370
    25
100
AcDbCircle
 10
-8.8482571387
 20
-1.9815556007
 30
0.0
 40
0.0800000000000034
100
AcDbArc
 50
90.0
 51
255.9557729001
  0
ARC
  5
345
330
1F
100
AcDbEntity
  8
0
  6
Continuous
 62
     7
370
    25
100
AcDbCircle
 10
-8.8482571387
 20
-1.9815556007
 30
0.0
 40
0.0487500000000026
100
AcDbArc
 50
90.0
 51
255.9557729
  0
ARC
  5
346
330
1F
100
AcDbEntity
  8
0
  6
Continuous
 62
     7
370
    25
100
AcDbCircle
 10
8.625
 20
-1.0890556007
 30
0.0
 40
0.9687499999999025
100
AcDbArc
 50
270.0
 51
284.0442270999
  0
ARC
  5
347
330
1F
100
AcDbEntity
  8
0
  6
Continuous
 62
     7
370
    25
100
AcDbCircle
 10
-8.625
 20
-1.0890556007
 30
0.0
 40
0.9687499999990672
100
AcDbArc
 50
255.9557729001
 51
270.0
  0
ARC
  5
348
330
1F
100
AcDbEntity
  8
0
  6
Continuous
 62
     7
370
    25
100
AcDbCircle
 10
8.8482571387
 20
-1.9815556007
 30
0.0
 40
0.0487499999999974
100
AcDbArc
 50
284.0442270999
 51
90.0
  0
ARC
  5
349
330
1F
100
AcDbEntity
  8
0
  6
Continuous
 62
     7
370
    25
100
AcDbCircle
 10
8.8482571387
 20
-1.9815556007
 30
0.0
 40
0.0799999999999999
100
AcDbArc
 50
284.0442270999
 51
90.0
  0
ARC
  5
34A
330
1F
100
AcDbEntity
  8
0
  6
Continuous
 62
     7
370
    25
100
AcDbCircle
 10
8.625
 20
-1.0890556007
 30
0.0
 40
1.000000000000375
100
AcDbArc
 50
270.0
 51
284.0442270999
  0
ARC
  5
34B
330
1F
100
AcDbEntity
  8
0
  6
Continuous
 62
     7
370
    25
100
AcDbCircle
 10
-8.625
 20
-1.0890556007
 30
0.0
 40
1.000000000001022
100
AcDbArc
 50
255.9557729001
 51
270.0
  0
ARC
  5
34C
330
1F
100
AcDbEntity
  8
0
  6
Continuous
 62
     7
370
    25
100
AcDbCircle
 10
-8.8482571387
 20
-1.9815556007
 30
0.0
 40
0.205000000000007
100
AcDbArc
 50
90.0
 51
173.5809749005
  0
ARC
  5
34D
330
1F
100
AcDbEntity
  8
0
  6
Continuous
 62
     7
370
    25
100
AcDbCircle
 10
8.8482571387
 20
-1.9815556007
 30
0.0
 40
0.204999999999997
100
AcDbArc
 50
6.4190250995
 51
90.0
  0
ARC
  5
34E
330
1F
100
AcDbEntity
  8
0
  6
Continuous
 62
     7
370
    25
100
AcDbCircle
 10
-8.625
 20
-1.0890556007
 30
0.0
 40
0.9687499999999829
100
AcDbArc
 50
202.2569569595
 51
243.8485591633
  0
ARC
  5
34F
330
1F
100
AcDbEntity
  8
0
  6
Continuous
 62
     7
370
    25
100
AcDbCircle
 10
-8.625
 20
-1.0890556007
 30
0.0
 40
0.9999999999999355
100
AcDbArc
 50
201.5260810067
 51
243.8485591633
  0
ARC
  5
350
330
1F
100
AcDbEntity
  8
0
  6
Continuous
 62
     7
370
    25
100
AcDbCircle
 10
8.625
 20
-1.0890556007
 30
0.0
 40
0.9687499999998948
100
AcDbArc
 50
296.1514408367
 51
333.8516723024
  0
ARC
  5
351
330
1F
100
AcDbEntity
  8
0
  6
Continuous
 62
     7
370
    25
100
AcDbCircle
 10
8.625
 20
-1.0890556007
 30
0.0
 40
1.000000000000098
100
AcDbArc
 50
296.1514408367
 51
334.7274475005
  0
ARC
  5
352
330
1F
100
AcDbEntity
  8
0
  6
Continuous
 62
     7
370
    25
100
AcDbCircle
 10
0.0
 20
0.15375
 30
0.0
 40
0.2499999999997395
100
AcDbArc
 50
80.0346008768
 51
99.9653991232
  0
ARC
  5
353
330
1F
100
AcDbEntity
  8
0
  6
Continuous
 62
     7
370
    25
100
AcDbCircle
 10
11.72
 20
-1.425980315
 30
0.0
 40
0.0299999999999994
100
AcDbArc
 50
270.0
 51
360.0
  0
ARC
  5
354
330
1F
100
AcDbEntity
  8
0
  6
Continuous
 62
     7
370
    25
100
AcDbCircle
 10
-11.72
 20
-1.425980315
 30
0.0
 40
0.0299999999999905
100
AcDbArc
 50
180.0
 51
270.0
  0
ARC
  5
355
330
1F
100
AcDbEntity
  8
0
  6
Continuous
 62
     7
370
    25
100
AcDbCircle
 10
11.1583484861
 20
-1.415980315
 30
0.0
 40
0.0999999999999986
100
AcDbArc
 50
270.0
 51
336.4218215218
  0
ARC
  5
356
330
1F
100
AcDbEntity
  8
0
  6
Continuous
 62
     7
370
    25
100
AcDbCircle
 10
11.1492435761
 20
-1.4419447291
 30
0.0
 40
0.0745933466026314
100
AcDbArc
 50
277.0110416804
 51
349.1544970883
  0
ARC
  5
357
330
1F
100
AcDbEntity
  8
0
  6
Continuous
 62
     7
370
    25
100
AcDbCircle
 10
9.1007564239
 20
-1.4419447291
 30
0.0
 40
0.0745933466026328
100
AcDbArc
 50
190.8455029117
 51
262.9889583196
  0
ARC
  5
358
330
1F
100
AcDbEntity
  8
0
  6
Continuous
 62
     7
370
    25
100
AcDbCircle
 10
9.0916515139
 20
-1.415980315
 30
0.0
 40
0.1000000000000054
100
AcDbArc
 50
203.5781784782
 51
270.0
  0
ARC
  5
359
330
1F
100
AcDbEntity
  8
0
  6
Continuous
 62
     7
370
    25
100
AcDbCircle
 10
0.0
 20
0.15375
 30
0.0
 40
0.2700000000000303
100
AcDbArc
 50
75.2072348061
 51
104.7927651939
  0
ENDSEC
  0
SECTION
  2
OBJECTS
  0
DICTIONARY
  5
C
330
0
100
AcDbDictionary
281
     1
  3
ACAD_GROUP
350
D
  3
ACAD_LAYOUT
350
1A
  3
ACAD_MLINESTYLE
350
17
  3
ACAD_PLOTSETTINGS
350
19
  3
ACAD_PLOTSTYLENAME
350
E
  3
ACAD_SCALELIST
350
47
  3
DWGPROPS
350
35A
  0
DICTIONARY
  5
D
102
{ACAD_REACTORS
330
C
102
}
330
C
100
AcDbDictionary
281
     1
  0
DICTIONARY
  5
1A
102
{ACAD_REACTORS
330
C
102
}
330
C
100
AcDbDictionary
281
     1
  3
Layout1
350
1E
  3
Layout2
350
26
  3
Model
350
22
  0
DICTIONARY
  5
17
102
{ACAD_REACTORS
330
C
102
}
330
C
100
AcDbDictionary
281
     1
  3
Standard
350
18
  0
DICTIONARY
  5
19
102
{ACAD_REACTORS
330
C
102
}
330
C
100
AcDbDictionary
281
     1
  0
ACDBDICTIONARYWDFLT
  5
E
102
{ACAD_REACTORS
330
C
102
}
330
C
100
AcDbDictionary
281
     1
  3
Normal
350
F
100
AcDbDictionaryWithDefault
340
F
  0
DICTIONARY
  5
47
102
{ACAD_REACTORS
330
C
102
}
330
C
100
AcDbDictionary
281
     1
  3
A0
350
48
  3
A1
350
49
  3
A2
350
4A
  3
A3
350
4B
  3
A4
350
4C
  3
A5
350
4D
  3
A6
350
4E
  3
A7
350
4F
  3
A8
350
50
  3
A9
350
51
  3
B1
350
52
  3
B2
350
53
  3
B3
350
54
  3
B4
350
55
  3
B5
350
56
  3
B6
350
57
  3
B7
350
58
  0
XRECORD
  5
35A
102
{ACAD_REACTORS
330
C
102
}
330
C
100
AcDbXrecord
280
     1
  1
DWGPROPS COOKIE
  2

  3

  4

  6

  7

  8
rmcneal
  9

300
=
301
=
302
=
303
=
304
=
305
=
306
=
307
=
308
=
309
=
 40
0.0
 41
2460900.775630521
 42
2460900.775694885
  1

 90
        0
  0
LAYOUT
  5
1E
102
{ACAD_REACTORS
330
1A
102
}
330
1A
100
AcDbPlotSettings
  1

  2
none_device
  4

  6

 40
0.0
 41
0.0
 42
0.0
 43
0.0
 44
0.0
 45
0.0
 46
0.0
 47
0.0
 48
0.0
 49
0.0
140
0.0
141
0.0
142
1.0
143
1.0
 70
   688
 72
     0
 73
     0
 74
     5
  7

 75
    16
147
1.0
148
0.0
149
0.0
100
AcDbLayout
  1
Layout1
 70
     1
 71
     1
 10
0.0
 20
0.0
 11
12.0
 21
9.0
 12
0.0
 22
0.0
 32
0.0
 14
1.0000000000E+20
 24
1.0000000000E+20
 34
1.0000000000E+20
 15
-1.0000000000E+20
 25
-1.0000000000E+20
 35
-1.0000000000E+20
146
0.0
 13
0.0
 23
0.0
 33
0.0
 16
1.0
 26
0.0
 36
0.0
 17
0.0
 27
1.0
 37
0.0
 76
     0
330
1B
  0
LAYOUT
  5
26
102
{ACAD_REACTORS
330
1A
102
}
330
1A
100
AcDbPlotSettings
  1

  2
none_device
  4

  6

 40
0.0
 41
0.0
 42
0.0
 43
0.0
 44
0.0
 45
0.0
 46
0.0
 47
0.0
 48
0.0
 49
0.0
140
0.0
141
0.0
142
1.0
143
1.0
 70
   688
 72
     0
 73
     0
 74
     5
  7

 75
    16
147
1.0
148
0.0
149
0.0
100
AcDbLayout
  1
Layout2
 70
     1
 71
     2
 10
0.0
 20
0.0
 11
0.0
 21
0.0
 12
0.0
 22
0.0
 32
0.0
 14
0.0
 24
0.0
 34
0.0
 15
0.0
 25
0.0
 35
0.0
146
0.0
 13
0.0
 23
0.0
 33
0.0
 16
1.0
 26
0.0
 36
0.0
 17
0.0
 27
1.0
 37
0.0
 76
     0
330
23
  0
LAYOUT
  5
22
102
{ACAD_REACTORS
330
1A
102
}
330
1A
100
AcDbPlotSettings
  1

  2
none_device
  4
ANSI_A_(11.00_x_8.50_Inches)
  6

 40
6.35
 41
19.05
 42
6.35000508
 43
19.05000254
 44
279.4
 45
215.9
 46
133.34999746
 47
92.5843652983
 48
0.0
 49
0.0
140
0.0
141
0.0
142
0.45375
143
1.0
 70
  1696
 72
     0
 73
     0
 74
     0
  7

 75
     0
147
0.5913241897
148
-39.4088153714
149
0.0
100
AcDbLayout
  1
Model
 70
     1
 71
     0
 10
0.0
 20
0.0
 11
12.0
 21
9.0
 12
0.0
 22
0.0
 32
0.0
 14
-12.0
 24
-2.0890556007
 34
0.0
 15
12.0
 25
1.4497
 35
0.0
146
0.0
 13
0.0
 23
0.0
 33
0.0
 16
1.0
 26
0.0
 36
0.0
 17
0.0
 27
1.0
 37
0.0
 76
     0
330
1F
331
29
  0
MLINESTYLE
  5
18
102
{ACAD_REACTORS
330
17
102
}
330
17
100
AcDbMlineStyle
  2
Standard
 70
     0
  3

 62
   256
 51
90.0
 52
90.0
 71
     2
 49
0.5
 62
   256
  6
BYLAYER
 49
-0.5
 62
   256
  6
BYLAYER
  0
ACDBPLACEHOLDER
  5
F
102
{ACAD_REACTORS
330
E
102
}
330
E
  0
SCALE
  5
48
102
{ACAD_REACTORS
330
47
102
}
330
47
100
AcDbScale
 70
     0
300
1:1
140
1.0
141
1.0
290
     1
  0
SCALE
  5
49
102
{ACAD_REACTORS
330
47
102
}
330
47
100
AcDbScale
 70
     0
300
1/128" = 1'-0"
140
0.0078125
141
12.0
290
     0
  0
SCALE
  5
4A
102
{ACAD_REACTORS
330
47
102
}
330
47
100
AcDbScale
 70
     0
300
1/64" = 1'-0"
140
0.015625
141
12.0
290
     0
  0
SCALE
  5
4B
102
{ACAD_REACTORS
330
47
102
}
330
47
100
AcDbScale
 70
     0
300
1/32" = 1'-0"
140
0.03125
141
12.0
290
     0
  0
SCALE
  5
4C
102
{ACAD_REACTORS
330
47
102
}
330
47
100
AcDbScale
 70
     0
300
1/16" = 1'-0"
140
0.0625
141
12.0
290
     0
  0
SCALE
  5
4D
102
{ACAD_REACTORS
330
47
102
}
330
47
100
AcDbScale
 70
     0
300
3/32" = 1'-0"
140
0.09375
141
12.0
290
     0
  0
SCALE
  5
4E
102
{ACAD_REACTORS
330
47
102
}
330
47
100
AcDbScale
 70
     0
300
1/8" = 1'-0"
140
0.125
141
12.0
290
     0
  0
SCALE
  5
4F
102
{ACAD_REACTORS
330
47
102
}
330
47
100
AcDbScale
 70
     0
300
3/16" = 1'-0"
140
0.1875
141
12.0
290
     0
  0
SCALE
  5
50
102
{ACAD_REACTORS
330
47
102
}
330
47
100
AcDbScale
 70
     0
300
1/4" = 1'-0"
140
0.25
141
12.0
290
     0
  0
SCALE
  5
51
102
{ACAD_REACTORS
330
47
102
}
330
47
100
AcDbScale
 70
     0
300
3/8" = 1'-0"
140
0.375
141
12.0
290
     0
  0
SCALE
  5
52
102
{ACAD_REACTORS
330
47
102
}
330
47
100
AcDbScale
 70
     0
300
1/2" = 1'-0"
140
0.5
141
12.0
290
     0
  0
SCALE
  5
53
102
{ACAD_REACTORS
330
47
102
}
330
47
100
AcDbScale
 70
     0
300
3/4" = 1'-0"
140
0.75
141
12.0
290
     0
  0
SCALE
  5
54
102
{ACAD_REACTORS
330
47
102
}
330
47
100
AcDbScale
 70
     0
300
1" = 1'-0"
140
1.0
141
12.0
290
     0
  0
SCALE
  5
55
102
{ACAD_REACTORS
330
47
102
}
330
47
100
AcDbScale
 70
     0
300
1-1/2" = 1'-0"
140
1.5
141
12.0
290
     0
  0
SCALE
  5
56
102
{ACAD_REACTORS
330
47
102
}
330
47
100
AcDbScale
 70
     0
300
3" = 1'-0"
140
3.0
141
12.0
290
     0
  0
SCALE
  5
57
102
{ACAD_REACTORS
330
47
102
}
330
47
100
AcDbScale
 70
     0
300
6" = 1'-0"
140
6.0
141
12.0
290
     0
  0
SCALE
  5
58
102
{ACAD_REACTORS
330
47
102
}
330
47
100
AcDbScale
 70
     0
300
1'-0" = 1'-0"
140
12.0
141
12.0
290
     0
  0
ENDSEC
  0
EOF
