  0
SECTION
  2
HEADER
  9
$ACADVER
  1
AC1015
  9
$ACADMAINTVER
 70
     6
  9
$DWGCODEPAGE
  3
ANSI_1252
  9
$INSBASE
 10
0.0
 20
0.0
 30
0.0
  9
$EXTMIN
 10
-1.4497
 20
-21.25
 30
0.0
  9
$EXTMAX
 10
22.0851017264
 20
21.25
 30
0.0
  9
$LIMMIN
 10
0.0
 20
0.0
  9
$LIMMAX
 10
12.0
 20
9.0
  9
$ORTHOMODE
 70
     0
  9
$REGENMODE
 70
     1
  9
$FILLMODE
 70
     1
  9
$QTEXTMODE
 70
     0
  9
$MIRRTEXT
 70
     1
  9
$LTSCALE
 40
1.0
  9
$ATTMODE
 70
     1
  9
$TEXTSIZE
 40
0.1388888889
  9
$TRACEWID
 40
0.05
  9
$TEXTSTYLE
  7
Standard
  9
$CLAYER
  8
0
  9
$CELTYPE
  6
ByLayer
  9
$CECOLOR
 62
   256
  9
$CELTSCALE
 40
1.0
  9
$DISPSILH
 70
     0
  9
$DIMSCALE
 40
1.0
  9
$DIMASZ
 40
0.075
  9
$DIMEXO
 40
0.0
  9
$DIMDLI
 40
0.38
  9
$DIMRND
 40
0.0
  9
$DIMDLE
 40
0.0
  9
$DIMEXE
 40
0.05
  9
$DIMTP
 40
0.0
  9
$DIMTM
 40
0.0
  9
$DIMTXT
 40
0.1388888889
  9
$DIMCEN
 40
0.09
  9
$DIMTSZ
 40
0.0
  9
$DIMTOL
 70
     0
  9
$DIMLIM
 70
     0
  9
$DIMTIH
 70
     1
  9
$DIMTOH
 70
     1
  9
$DIMSE1
 70
     0
  9
$DIMSE2
 70
     0
  9
$DIMTAD
 70
     0
  9
$DIMZIN
 70
     1
  9
$DIMBLK
  1

  9
$DIMASO
 70
     1
  9
$DIMSHO
 70
     1
  9
$DIMPOST
  1

  9
$DIMAPOST
  1

  9
$DIMALT
 70
     0
  9
$DIMALTD
 70
     2
  9
$DIMALTF
 40
25.4
  9
$DIMLFAC
 40
1.0
  9
$DIMTOFL
 70
     0
  9
$DIMTVP
 40
0.0
  9
$DIMTIX
 70
     0
  9
$DIMSOXD
 70
     0
  9
$DIMSAH
 70
     0
  9
$DIMBLK1
  1

  9
$DIMBLK2
  1

  9
$DIMSTYLE
  2
Standard
  9
$DIMCLRD
 70
     0
  9
$DIMCLRE
 70
     0
  9
$DIMCLRT
 70
     0
  9
$DIMTFAC
 40
1.0
  9
$DIMGAP
 40
0.08
  9
$DIMJUST
 70
     0
  9
$DIMSD1
 70
     0
  9
$DIMSD2
 70
     0
  9
$DIMTOLJ
 70
     1
  9
$DIMTZIN
 70
     1
  9
$DIMALTZ
 70
     0
  9
$DIMALTTZ
 70
     0
  9
$DIMUPT
 70
     0
  9
$DIMDEC
 70
     3
  9
$DIMTDEC
 70
     3
  9
$DIMALTU
 70
     2
  9
$DIMALTTD
 70
     2
  9
$DIMTXSTY
  7
Standard
  9
$DIMAUNIT
 70
     0
  9
$DIMADEC
 70
     1
  9
$DIMALTRND
 40
0.0
  9
$DIMAZIN
 70
     0
  9
$DIMDSEP
 70
    46
  9
$DIMATFIT
 70
     3
  9
$DIMFRAC
 70
     0
  9
$DIMLDRBLK
  1

  9
$DIMLUNIT
 70
     2
  9
$DIMLWD
 70
    -2
  9
$DIMLWE
 70
    -2
  9
$DIMTMOVE
 70
     0
  9
$LUNITS
 70
     2
  9
$LUPREC
 70
     6
  9
$SKETCHINC
 40
0.1
  9
$FILLETRAD
 40
0.0
  9
$AUNITS
 70
     0
  9
$AUPREC
 70
     1
  9
$MENU
  1
.
  9
$ELEVATION
 40
0.0
  9
$PELEVATION
 40
0.0
  9
$THICKNESS
 40
0.0
  9
$LIMCHECK
 70
     0
  9
$CHAMFERA
 40
0.0
  9
$CHAMFERB
 40
0.0
  9
$CHAMFERC
 40
0.0
  9
$CHAMFERD
 40
0.0
  9
$SKPOLY
 70
     0
  9
$TDCREATE
 40
2460900.565735151
  9
$TDUCREATE
 40
2460900.774068484
  9
$TDUPDATE
 40
2460900.565977662
  9
$TDUUPDATE
 40
2460900.774310996
  9
$TDINDWG
 40
0.0000000116
  9
$TDUSRTIMER
 40
0.0000000116
  9
$USRTIMER
 70
     1
  9
$ANGBASE
 50
0.0
  9
$ANGDIR
 70
     0
  9
$PDMODE
 70
     0
  9
$PDSIZE
 40
-1.0
  9
$PLINEWID
 40
0.0
  9
$SPLFRAME
 70
     0
  9
$SPLINETYPE
 70
     6
  9
$SPLINESEGS
 70
     8
  9
$HANDSEED
  5
2C5
  9
$SURFTAB1
 70
     6
  9
$SURFTAB2
 70
     6
  9
$SURFTYPE
 70
     6
  9
$SURFU
 70
     6
  9
$SURFV
 70
     6
  9
$UCSBASE
  2

  9
$UCSNAME
  2

  9
$UCSORG
 10
0.0
 20
0.0
 30
0.0
  9
$UCSXDIR
 10
1.0
 20
0.0
 30
0.0
  9
$UCSYDIR
 10
0.0
 20
1.0
 30
0.0
  9
$UCSORTHOREF
  2

  9
$UCSORTHOVIEW
 70
     0
  9
$UCSORGTOP
 10
0.0
 20
0.0
 30
0.0
  9
$UCSORGBOTTOM
 10
0.0
 20
0.0
 30
0.0
  9
$UCSORGLEFT
 10
0.0
 20
0.0
 30
0.0
  9
$UCSORGRIGHT
 10
0.0
 20
0.0
 30
0.0
  9
$UCSORGFRONT
 10
0.0
 20
0.0
 30
0.0
  9
$UCSORGBACK
 10
0.0
 20
0.0
 30
0.0
  9
$PUCSBASE
  2

  9
$PUCSNAME
  2

  9
$PUCSORG
 10
0.0
 20
0.0
 30
0.0
  9
$PUCSXDIR
 10
1.0
 20
0.0
 30
0.0
  9
$PUCSYDIR
 10
0.0
 20
1.0
 30
0.0
  9
$PUCSORTHOREF
  2

  9
$PUCSORTHOVIEW
 70
     0
  9
$PUCSORGTOP
 10
0.0
 20
0.0
 30
0.0
  9
$PUCSORGBOTTOM
 10
0.0
 20
0.0
 30
0.0
  9
$PUCSORGLEFT
 10
0.0
 20
0.0
 30
0.0
  9
$PUCSORGRIGHT
 10
0.0
 20
0.0
 30
0.0
  9
$PUCSORGFRONT
 10
0.0
 20
0.0
 30
0.0
  9
$PUCSORGBACK
 10
0.0
 20
0.0
 30
0.0
  9
$USERI1
 70
     0
  9
$USERI2
 70
     0
  9
$USERI3
 70
     0
  9
$USERI4
 70
     0
  9
$USERI5
 70
     0
  9
$USERR1
 40
0.0
  9
$USERR2
 40
0.0
  9
$USERR3
 40
0.0
  9
$USERR4
 40
0.0
  9
$USERR5
 40
0.0
  9
$WORLDVIEW
 70
     1
  9
$SHADEDGE
 70
     3
  9
$SHADEDIF
 70
    70
  9
$TILEMODE
 70
     1
  9
$MAXACTVP
 70
    64
  9
$PINSBASE
 10
0.0
 20
0.0
 30
0.0
  9
$PLIMCHECK
 70
     0
  9
$PEXTMIN
 10
1.0000000000E+20
 20
1.0000000000E+20
 30
1.0000000000E+20
  9
$PEXTMAX
 10
-1.0000000000E+20
 20
-1.0000000000E+20
 30
-1.0000000000E+20
  9
$PLIMMIN
 10
0.0
 20
0.0
  9
$PLIMMAX
 10
12.0
 20
9.0
  9
$UNITMODE
 70
     0
  9
$VISRETAIN
 70
     1
  9
$PLINEGEN
 70
     0
  9
$PSLTSCALE
 70
     1
  9
$TREEDEPTH
 70
  3020
  9
$CMLSTYLE
  2
Standard
  9
$CMLJUST
 70
     0
  9
$CMLSCALE
 40
1.0
  9
$PROXYGRAPHICS
 70
     1
  9
$MEASUREMENT
 70
     0
  9
$CELWEIGHT
370
    -1
  9
$ENDCAPS
280
     0
  9
$JOINSTYLE
280
     0
  9
$LWDISPLAY
290
     1
  9
$INSUNITS
 70
     1
  9
$HYPERLINKBASE
  1

  9
$STYLESHEET
  1

  9
$XEDIT
290
     1
  9
$CEPSNTYPE
380
     0
  9
$PSTYLEMODE
290
     1
  9
$FINGERPRINTGUID
  2
{d3a3dfe5-36b8-44ad-9c52-1403d08670bd}
  9
$VERSIONGUID
  2
{FAEB1C32-E019-11D5-929B-00C0DF256EC4}
  9
$EXTNAMES
290
     1
  9
$PSVPSCALE
 40
0.0
  9
$OLESTARTUP
290
     0
  0
ENDSEC
  0
SECTION
  2
CLASSES
  0
CLASS
  1
ACDBDICTIONARYWDFLT
  2
AcDbDictionaryWithDefault
  3
ObjectDBX Classes
 90
        0
280
     0
281
     0
  0
CLASS
  1
VISUALSTYLE
  2
AcDbVisualStyle
  3
ObjectDBX Classes
 90
     4095
280
     0
281
     0
  0
CLASS
  1
MATERIAL
  2
AcDbMaterial
  3
ObjectDBX Classes
 90
     1153
280
     0
281
     0
  0
CLASS
  1
SCALE
  2
AcDbScale
  3
ObjectDBX Classes
 90
     1153
280
     0
281
     0
  0
CLASS
  1
TABLESTYLE
  2
AcDbTableStyle
  3
ObjectDBX Classes
 90
     4095
280
     0
281
     0
  0
CLASS
  1
MLEADERSTYLE
  2
AcDbMLeaderStyle
  3
ACDB_MLEADERSTYLE_CLASS
 90
     4095
280
     0
281
     0
  0
CLASS
  1
SUN
  2
AcDbSun
  3
SCENEOE
 90
     1153
280
     0
281
     0
  0
CLASS
  1
ACDBPLACEHOLDER
  2
AcDbPlaceHolder
  3
ObjectDBX Classes
 90
        0
280
     0
281
     0
  0
CLASS
  1
LAYOUT
  2
AcDbLayout
  3
ObjectDBX Classes
 90
        0
280
     0
281
     0
  0
ENDSEC
  0
SECTION
  2
TABLES
  0
TABLE
  2
VPORT
  5
8
330
0
100
AcDbSymbolTable
 70
     1
  0
VPORT
  5
29
330
8
100
AcDbSymbolTableRecord
100
AcDbViewportTableRecord
  2
*Active
 70
     0
 10
0.0
 20
0.0
 11
1.0
 21
1.0
 12
10.3177008632
 22
0.0
 13
0.0
 23
0.0
 14
0.5
 24
0.5
 15
0.5
 25
0.5
 16
0.0
 26
0.0
 36
1.0
 17
0.0
 27
0.0
 37
0.0
 40
43.35
 41
0.5537600406
 42
50.0
 43
0.0
 44
0.0
 50
0.0
 51
0.0
 71
     0
 72
   100
 73
     1
 74
     3
 75
     0
 76
     0
 77
     0
 78
     0
281
     0
 65
     1
110
0.0
120
0.0
130
0.0
111
1.0
121
0.0
131
0.0
112
0.0
122
1.0
132
0.0
 79
     0
146
0.0
  0
ENDTAB
  0
TABLE
  2
LTYPE
  5
5
330
0
100
AcDbSymbolTable
 70
     6
  0
LTYPE
  5
14
330
5
100
AcDbSymbolTableRecord
100
AcDbLinetypeTableRecord
  2
ByBlock
 70
     0
  3

 72
    65
 73
     0
 40
0.0
  0
LTYPE
  5
15
330
5
100
AcDbSymbolTableRecord
100
AcDbLinetypeTableRecord
  2
ByLayer
 70
     0
  3

 72
    65
 73
     0
 40
0.0
  0
LTYPE
  5
16
330
5
100
AcDbSymbolTableRecord
100
AcDbLinetypeTableRecord
  2
Continuous
 70
     0
  3
Solid line
 72
    65
 73
     0
 40
0.0
  0
LTYPE
  5
5E
330
5
100
AcDbSymbolTableRecord
100
AcDbLinetypeTableRecord
  2
HIDDEN
 70
     0
  3
Hidden __ __ __ __ __ __ __ __ __ __ __ __ __ __
 72
    65
 73
     2
 40
0.075
 49
0.05
 74
     0
 49
-0.025
 74
     0
  0
LTYPE
  5
5F
330
5
100
AcDbSymbolTableRecord
100
AcDbLinetypeTableRecord
  2
PHANTOM
 70
     0
  3
Phantom ______  __  __  ______  __  __  ______
 72
    65
 73
     6
 40
0.5
 49
0.25
 74
     0
 49
-0.05
 74
     0
 49
0.05
 74
     0
 49
-0.05
 74
     0
 49
0.05
 74
     0
 49
-0.05
 74
     0
  0
LTYPE
  5
60
330
5
100
AcDbSymbolTableRecord
100
AcDbLinetypeTableRecord
  2
CENTER
 70
     0
  3
Center ____ _ ____ _ ____ _ ____ _ ____ _ ____
 72
    65
 73
     4
 40
0.4
 49
0.25
 74
     0
 49
-0.05
 74
     0
 49
0.05
 74
     0
 49
-0.05
 74
     0
  0
LTYPE
  5
61
330
5
100
AcDbSymbolTableRecord
100
AcDbLinetypeTableRecord
  2
CENTERX2
 70
     0
  3
Center (2x) ________  __  ________  __  _____
 72
    65
 73
     4
 40
0.8
 49
0.5
 74
     0
 49
-0.1
 74
     0
 49
0.1
 74
     0
 49
-0.1
 74
     0
  0
LTYPE
  5
62
330
5
100
AcDbSymbolTableRecord
100
AcDbLinetypeTableRecord
  2
DOT2
 70
     0
  3
Dot (.5x) ........................................
 72
    65
 73
     2
 40
0.025
 49
0.0
 74
     0
 49
-0.025
 74
     0
  0
ENDTAB
  0
TABLE
  2
LAYER
  5
2
330
0
100
AcDbSymbolTable
 70
     1
  0
LAYER
  5
10
330
2
100
AcDbSymbolTableRecord
100
AcDbLayerTableRecord
  2
0
 70
     0
 62
     7
  6
Continuous
370
    -3
390
F
  0
ENDTAB
  0
TABLE
  2
STYLE
  5
3
330
0
100
AcDbSymbolTable
 70
     1
  0
STYLE
  5
11
330
3
100
AcDbSymbolTableRecord
100
AcDbTextStyleTableRecord
  2
Standard
 70
     0
 40
0.0
 41
1.0
 50
0.0
 71
     0
 42
0.1388888889
  3
txt
  4

  0
ENDTAB
  0
TABLE
  2
VIEW
  5
6
330
0
100
AcDbSymbolTable
 70
     0
  0
ENDTAB
  0
TABLE
  2
UCS
  5
7
330
0
100
AcDbSymbolTable
 70
     0
  0
ENDTAB
  0
TABLE
  2
APPID
  5
9
330
0
100
AcDbSymbolTable
 70
     1
  0
APPID
  5
12
330
9
100
AcDbSymbolTableRecord
100
AcDbRegAppTableRecord
  2
ACAD
 70
     0
  0
ENDTAB
  0
TABLE
  2
DIMSTYLE
  5
A
330
0
100
AcDbSymbolTable
 70
     1
100
AcDbDimStyleTable
  0
DIMSTYLE
105
27
330
A
100
AcDbSymbolTableRecord
100
AcDbDimStyleTableRecord
  2
Standard
 70
     0
178
     0
340
11
  0
ENDTAB
  0
TABLE
  2
BLOCK_RECORD
  5
1
330
0
100
AcDbSymbolTable
 70
     1
  0
BLOCK_RECORD
  5
1F
330
1
100
AcDbSymbolTableRecord
100
AcDbBlockTableRecord
  2
*Model_Space
340
22
  0
BLOCK_RECORD
  5
1B
330
1
100
AcDbSymbolTableRecord
100
AcDbBlockTableRecord
  2
*Paper_Space
340
1E
  0
BLOCK_RECORD
  5
23
330
1
100
AcDbSymbolTableRecord
100
AcDbBlockTableRecord
  2
*Paper_Space0
340
26
  0
ENDTAB
  0
ENDSEC
  0
SECTION
  2
BLOCKS
  0
BLOCK
  5
20
330
1F
100
AcDbEntity
  8
0
100
AcDbBlockBegin
  2
*Model_Space
 70
     0
 10
0.0
 20
0.0
 30
0.0
  3
*Model_Space
  1

  0
ENDBLK
  5
21
330
1F
100
AcDbEntity
  8
0
100
AcDbBlockEnd
  0
BLOCK
  5
1C
330
1B
100
AcDbEntity
 67
     1
  8
0
100
AcDbBlockBegin
  2
*Paper_Space
 70
     0
 10
0.0
 20
0.0
 30
0.0
  3
*Paper_Space
  1

  0
ENDBLK
  5
1D
330
1B
100
AcDbEntity
 67
     1
  8
0
100
AcDbBlockEnd
  0
BLOCK
  5
24
330
23
100
AcDbEntity
  8
0
100
AcDbBlockBegin
  2
*Paper_Space0
 70
     0
 10
0.0
 20
0.0
 30
0.0
  3
*Paper_Space0
  1

  0
ENDBLK
  5
25
330
23
100
AcDbEntity
  8
0
100
AcDbBlockEnd
  0
ENDSEC
  0
SECTION
  2
ENTITIES
  0
LINE
  5
63
330
1F
100
AcDbEntity
  8
0
  6
Continuous
 62
     7
100
AcDbLine
 10
0.09
 20
-21.065
 30
0.0
 11
0.18
 21
-21.065
 31
0.0
  0
LINE
  5
64
330
1F
100
AcDbEntity
  8
0
  6
Continuous
 62
     7
100
AcDbLine
 10
0.09
 20
-21.065
 30
0.0
 11
0.09
 21
-20.44
 31
0.0
  0
LINE
  5
65
330
1F
100
AcDbEntity
  8
0
  6
Continuous
 62
     7
100
AcDbLine
 10
0.09
 20
-20.44
 30
0.0
 11
0.18
 21
-20.44
 31
0.0
  0
LINE
  5
66
330
1F
100
AcDbEntity
  8
0
  6
Continuous
 62
     7
100
AcDbLine
 10
0.18
 20
-21.065
 30
0.0
 11
0.18
 21
-20.44
 31
0.0
  0
LINE
  5
67
330
1F
100
AcDbEntity
  8
0
  6
Continuous
 62
     7
100
AcDbLine
 10
0.09
 20
-21.065
 30
0.0
 11
0.18
 21
-21.065
 31
0.0
  0
LINE
  5
68
330
1F
100
AcDbEntity
  8
0
  6
Continuous
 62
     7
100
AcDbLine
 10
0.09
 20
-21.065
 30
0.0
 11
0.09
 21
-20.44
 31
0.0
  0
LINE
  5
69
330
1F
100
AcDbEntity
  8
0
  6
Continuous
 62
     7
100
AcDbLine
 10
0.09
 20
-20.44
 30
0.0
 11
0.18
 21
-20.44
 31
0.0
  0
LINE
  5
6A
330
1F
100
AcDbEntity
  8
0
  6
Continuous
 62
     7
100
AcDbLine
 10
0.18
 20
-21.065
 30
0.0
 11
0.18
 21
-20.44
 31
0.0
  0
LINE
  5
6B
330
1F
100
AcDbEntity
  8
0
  6
Continuous
 62
     7
100
AcDbLine
 10
6.1982957189
 20
0.0770845763
 30
0.0
 11
3.1183013434
 21
0.0711983811
 31
0.0
  0
LINE
  5
6C
330
1F
100
AcDbEntity
  8
0
  6
Continuous
 62
     7
100
AcDbLine
 10
6.1982957189
 20
0.0770845763
 30
0.0
 11
6.1996096017
 21
-0.6104141682
 31
0.0
  0
LINE
  5
6D
330
1F
100
AcDbEntity
  8
0
  6
Continuous
 62
     7
100
AcDbLine
 10
6.1996096017
 20
-0.6104141682
 30
0.0
 11
3.1196152263
 21
-0.6163003634
 31
0.0
  0
LINE
  5
6E
330
1F
100
AcDbEntity
  8
0
  6
Continuous
 62
     7
100
AcDbLine
 10
3.1183013434
 20
0.0711983811
 30
0.0
 11
3.1196152263
 21
-0.6163003634
 31
0.0
  0
LINE
  5
6F
330
1F
100
AcDbEntity
  8
0
  6
CENTERX2
 62
     7
100
AcDbLine
 10
6.1982957189
 20
0.0770845763
 30
0.0
 11
3.1196152263
 21
-0.6163003634
 31
0.0
  0
LINE
  5
70
330
1F
100
AcDbEntity
  8
0
  6
CENTERX2
 62
     7
100
AcDbLine
 10
6.1996096017
 20
-0.6104141682
 30
0.0
 11
3.1183013434
 21
0.0711983811
 31
0.0
  0
LINE
  5
71
330
1F
100
AcDbEntity
  8
0
  6
Continuous
 62
     7
100
AcDbLine
 10
4.6982984581
 20
0.0742179228
 30
0.0
 11
4.9482980016
 21
0.0746956984
 31
0.0
  0
LINE
  5
72
330
1F
100
AcDbEntity
  8
0
  6
Continuous
 62
     7
100
AcDbLine
 10
4.6982984581
 20
0.0742179228
 30
0.0
 11
4.698202903
 21
0.1242178315
 31
0.0
  0
LINE
  5
73
330
1F
100
AcDbEntity
  8
0
  6
Continuous
 62
     7
100
AcDbLine
 10
4.698202903
 20
0.1242178315
 30
0.0
 11
4.9482024464
 21
0.1246956071
 31
0.0
  0
LINE
  5
74
330
1F
100
AcDbEntity
  8
0
  6
Continuous
 62
     7
100
AcDbLine
 10
4.9482980016
 20
0.0746956984
 30
0.0
 11
4.9482024464
 21
0.1246956071
 31
0.0
  0
LINE
  5
75
330
1F
100
AcDbEntity
  8
0
  6
Continuous
 62
     7
100
AcDbLine
 10
20.263270034
 20
0.1039642308
 30
0.0
 11
20.0132704905
 21
0.1034864552
 31
0.0
  0
LINE
  5
76
330
1F
100
AcDbEntity
  8
0
  6
Continuous
 62
     7
100
AcDbLine
 10
20.263270034
 20
0.1039642308
 30
0.0
 11
20.2631744788
 21
0.1539641394
 31
0.0
  0
LINE
  5
77
330
1F
100
AcDbEntity
  8
0
  6
Continuous
 62
     7
100
AcDbLine
 10
20.2631744788
 20
0.1539641394
 30
0.0
 11
20.0131749354
 21
0.1534863639
 31
0.0
  0
LINE
  5
78
330
1F
100
AcDbEntity
  8
0
  6
Continuous
 62
     7
100
AcDbLine
 10
20.0132704905
 20
0.1034864552
 30
0.0
 11
20.0131749354
 21
0.1534863639
 31
0.0
  0
LINE
  5
79
330
1F
100
AcDbEntity
  8
0
  6
Continuous
 62
     7
100
AcDbLine
 10
6.1982957189
 20
0.0770845763
 30
0.0
 11
3.1183013434
 21
0.0711983811
 31
0.0
  0
LINE
  5
7A
330
1F
100
AcDbEntity
  8
0
  6
Continuous
 62
     7
100
AcDbLine
 10
6.1982957189
 20
0.0770845763
 30
0.0
 11
6.1996096017
 21
-0.6104141682
 31
0.0
  0
LINE
  5
7B
330
1F
100
AcDbEntity
  8
0
  6
Continuous
 62
     7
100
AcDbLine
 10
6.1996096017
 20
-0.6104141682
 30
0.0
 11
3.1196152263
 21
-0.6163003634
 31
0.0
  0
LINE
  5
7C
330
1F
100
AcDbEntity
  8
0
  6
Continuous
 62
     7
100
AcDbLine
 10
3.1183013434
 20
0.0711983811
 30
0.0
 11
3.1196152263
 21
-0.6163003634
 31
0.0
  0
LINE
  5
7D
330
1F
100
AcDbEntity
  8
0
  6
CENTERX2
 62
     7
100
AcDbLine
 10
6.1982957189
 20
0.0770845763
 30
0.0
 11
3.1196152263
 21
-0.6163003634
 31
0.0
  0
LINE
  5
7E
330
1F
100
AcDbEntity
  8
0
  6
CENTERX2
 62
     7
100
AcDbLine
 10
6.1996096017
 20
-0.6104141682
 30
0.0
 11
3.1183013434
 21
0.0711983811
 31
0.0
  0
LINE
  5
7F
330
1F
100
AcDbEntity
  8
0
  6
Continuous
 62
     7
100
AcDbLine
 10
4.6982984581
 20
0.0742179228
 30
0.0
 11
4.9482980016
 21
0.0746956984
 31
0.0
  0
LINE
  5
80
330
1F
100
AcDbEntity
  8
0
  6
Continuous
 62
     7
100
AcDbLine
 10
4.6982984581
 20
0.0742179228
 30
0.0
 11
4.698202903
 21
0.1242178315
 31
0.0
  0
LINE
  5
81
330
1F
100
AcDbEntity
  8
0
  6
Continuous
 62
     7
100
AcDbLine
 10
4.698202903
 20
0.1242178315
 30
0.0
 11
4.9482024464
 21
0.1246956071
 31
0.0
  0
LINE
  5
82
330
1F
100
AcDbEntity
  8
0
  6
Continuous
 62
     7
100
AcDbLine
 10
4.9482980016
 20
0.0746956984
 30
0.0
 11
4.9482024464
 21
0.1246956071
 31
0.0
  0
LINE
  5
83
330
1F
100
AcDbEntity
  8
0
  6
Continuous
 62
     7
100
AcDbLine
 10
20.263270034
 20
0.1039642308
 30
0.0
 11
20.0132704905
 21
0.1034864552
 31
0.0
  0
LINE
  5
84
330
1F
100
AcDbEntity
  8
0
  6
Continuous
 62
     7
100
AcDbLine
 10
20.263270034
 20
0.1039642308
 30
0.0
 11
20.2631744788
 21
0.1539641394
 31
0.0
  0
LINE
  5
85
330
1F
100
AcDbEntity
  8
0
  6
Continuous
 62
     7
100
AcDbLine
 10
20.2631744788
 20
0.1539641394
 30
0.0
 11
20.0131749354
 21
0.1534863639
 31
0.0
  0
LINE
  5
86
330
1F
100
AcDbEntity
  8
0
  6
Continuous
 62
     7
100
AcDbLine
 10
20.0132704905
 20
0.1034864552
 30
0.0
 11
20.0131749354
 21
0.1534863639
 31
0.0
  0
POINT
  5
87
330
1F
100
AcDbEntity
  8
0
  6
Continuous
 62
     7
100
AcDbPoint
 10
-0.3475
 20
-19.924375
 30
0.0
  0
POINT
  5
88
330
1F
100
AcDbEntity
  8
0
  6
Continuous
 62
     7
100
AcDbPoint
 10
-0.3475
 20
-19.924375
 30
0.0
  0
POINT
  5
89
330
1F
100
AcDbEntity
  8
0
  6
Continuous
 62
     7
100
AcDbPoint
 10
4.6589554726
 20
-0.2696078935
 30
0.0
  0
POINT
  5
8A
330
1F
100
AcDbEntity
  8
0
  6
Continuous
 62
     7
100
AcDbPoint
 10
4.6589554726
 20
-0.2696078935
 30
0.0
  0
SPLINE
  5
8F
330
1F
100
AcDbEntity
  8
0
  6
Continuous
 62
     7
370
    25
100
AcDbSpline
210
0.0
220
0.0
230
1.0
 70
     8
 71
     3
 72
     9
 73
     5
 74
     0
 42
0.00000001
 43
0.00000001
 40
0.0
 40
0.0
 40
0.0
 40
0.0
 40
0.4997037157547295
 40
1.0
 40
1.0
 40
1.0
 40
1.0
 10
1.812122474653594
 20
-0.4097724782141188
 30
0.0
 10
1.808728939880526
 20
-0.4117578192673782
 30
0.0
 10
1.801937846146224
 20
-0.4157308556700813
 30
0.0
 10
1.795136939355376
 20
-0.4196963852361693
 30
0.0
 10
1.791734470958415
 20
-0.4216803249431479
 30
0.0
  0
SPLINE
  5
95
330
1F
100
AcDbEntity
  8
0
  6
Continuous
 62
     7
370
    25
100
AcDbSpline
210
0.0
220
0.0
230
1.0
 70
     8
 71
     3
 72
     9
 73
     5
 74
     0
 42
0.00000001
 43
0.00000001
 40
0.0
 40
0.0
 40
0.0
 40
0.0
 40
0.4999349670385353
 40
1.0
 40
1.0
 40
1.0
 40
1.0
 10
1.933504014003831
 20
-0.4208854005355538
 30
0.0
 10
1.936771343851678
 20
-0.4189142705139169
 30
0.0
 10
1.943306853594478
 20
-0.4149714976502519
 30
0.0
 10
1.949805105465632
 20
-0.411030262073709
 30
0.0
 10
1.953054654001773
 20
-0.4090593879752162
 30
0.0
  0
SPLINE
  5
B7
330
1F
100
AcDbEntity
  8
0
  6
Continuous
 62
     7
370
    25
100
AcDbSpline
210
0.0
220
0.0
230
1.0
 70
     8
 71
     3
 72
    12
 73
     8
 74
     0
 42
0.00000001
 43
0.00000001
 40
0.0
 40
0.0
 40
0.0
 40
0.0
 40
0.1667017100170278
 40
0.332149212064423
 40
0.4972368530716312
 40
0.7475266050134125
 40
1.0
 40
1.0
 40
1.0
 40
1.0
 10
21.86222447456093
 20
1.108380526199285
 30
0.0
 10
21.87543062789591
 20
1.106460083656611
 30
0.0
 10
21.90174357588048
 20
1.102633647339319
 30
0.0
 10
21.93912217268108
 20
1.095292687470922
 30
0.0
 10
21.97723255832099
 20
1.083882278485958
 30
0.0
 10
22.0109632832756
 20
1.065663107351025
 30
0.0
 10
22.01605552152288
 20
1.046051298246331
 30
0.0
 10
22.01861269916452
 20
1.036202803867332
 30
0.0
  0
SPLINE
  5
BB
330
1F
100
AcDbEntity
  8
0
  6
Continuous
 62
     7
370
    25
100
AcDbSpline
210
0.0
220
0.0
230
1.0
 70
     8
 71
     3
 72
    16
 73
    12
 74
     0
 42
0.00000001
 43
0.00000001
 40
0.0
 40
0.0
 40
0.0
 40
0.0
 40
0.1256760229507574
 40
0.2506347224845547
 40
0.3762900936787101
 40
0.5012089774633081
 40
0.6001127540190143
 40
0.6995397557593253
 40
0.7990641726042828
 40
0.8979879047759857
 40
0.9999999999999999
 40
0.9999999999999999
 40
0.9999999999999999
 40
0.9999999999999999
 10
22.05185024570345
 20
0.9773436629273474
 30
0.0
 10
22.05085992726217
 20
0.9905701281870382
 30
0.0
 10
22.04888494283894
 20
1.016947565760099
 30
0.0
 10
22.03614765179969
 20
1.049884203940687
 30
0.0
 10
22.01901985241599
 20
1.07770597425128
 30
0.0
 10
21.99943357639143
 20
1.098570609158777
 30
0.0
 10
21.97930378057672
 20
1.11389809279481
 30
0.0
 10
21.95947990921044
 20
1.124838780681724
 30
0.0
 10
21.93875192928461
 20
1.132566497924999
 30
0.0
 10
21.91725726063557
 20
1.137450097579075
 30
0.0
 10
21.90268858571002
 20
1.138037079393518
 30
0.0
 10
21.89529228872777
 20
1.138335081225873
 30
0.0
  0
SPLINE
  5
CF
330
1F
100
AcDbEntity
  8
0
  6
Continuous
 62
     7
370
    25
100
AcDbSpline
210
0.0
220
0.0
230
1.0
 70
     8
 71
     3
 72
    15
 73
    11
 74
     0
 42
0.00000001
 43
0.00000001
 40
0.0
 40
0.0
 40
0.0
 40
0.0
 40
0.1245854022727555
 40
0.248718590390581
 40
0.3723223054419975
 40
0.4960607981190338
 40
0.6207656087849285
 40
0.7466226407303965
 40
0.8724283458451635
 40
1.0
 40
1.0
 40
1.0
 40
1.0
 10
21.89529228872777
 20
1.138335081225873
 30
0.0
 10
21.90620390664829
 20
1.137806589081769
 30
0.0
 10
21.92798753601869
 20
1.136751523089153
 30
0.0
 10
21.95991296514343
 20
1.127949637328661
 30
0.0
 10
21.99035399065972
 20
1.113861688333888
 30
0.0
 10
22.01858746071007
 20
1.093843818929088
 30
0.0
 10
22.04379828354001
 20
1.06781481792627
 30
0.0
 10
22.06436329699179
 20
1.035440984779584
 30
0.0
 10
22.0796337588231
 20
0.9970349707146625
 30
0.0
 10
22.08197267115644
 20
0.9665449951711561
 30
0.0
 10
22.08315027801187
 20
0.9511937553191107
 30
0.0
  0
SPLINE
  5
D0
330
1F
100
AcDbEntity
  8
0
  6
Continuous
 62
     7
370
    25
100
AcDbSpline
210
0.0
220
0.0
230
1.0
 70
     8
 71
     3
 72
    12
 73
     8
 74
     0
 42
0.00000001
 43
0.00000001
 40
0.0
 40
0.0
 40
0.0
 40
0.0
 40
0.2258381328793608
 40
0.4606963753704043
 40
0.6274689980129284
 40
0.8073993009605938
 40
1.0
 40
1.0
 40
1.0
 40
1.0
 10
21.98741636457748
 20
1.008092125918965
 30
0.0
 10
21.98528828479148
 20
1.017488125793117
 30
0.0
 10
21.98094712844464
 20
1.036655407375785
 30
0.0
 10
21.95316707936061
 20
1.059177933233941
 30
0.0
 10
21.92262159612205
 20
1.079102784351338
 30
0.0
 10
21.89281708427857
 20
1.097097984011374
 30
0.0
 10
21.8726506424902
 20
1.104535359650697
 30
0.0
 10
21.86222447456093
 20
1.108380526199285
 30
0.0
  0
SPLINE
  5
149
330
1F
100
AcDbEntity
  8
0
  6
Continuous
 62
     7
370
    25
100
AcDbSpline
210
0.0
220
0.0
230
1.0
 70
     8
 71
     3
 72
    16
 73
    12
 74
     0
 42
0.00000001
 43
0.00000001
 40
0.0
 40
0.0
 40
0.0
 40
0.0
 40
0.1129757822227115
 40
0.2391047698477035
 40
0.3652337574727449
 40
0.4913627450975722
 40
0.6174917327226029
 40
0.7436207203476305
 40
0.8697497079725715
 40
0.9958786955975663
 40
1.0
 40
1.0
 40
1.0
 40
1.0
 10
1.954592750308842
 20
-0.4064147209666903
 30
0.0
 10
1.953575755793377
 20
-0.4069998142078223
 30
0.0
 10
1.951423363176371
 20
-0.4082381201704625
 30
0.0
 10
1.933279743600063
 20
-0.4101580299157095
 30
0.0
 10
1.906478961364434
 20
-0.4121623776136139
 30
0.0
 10
1.874283555825763
 20
-0.4141770350075565
 30
0.0
 10
1.84211052023549
 20
-0.4161916496501198
 30
0.0
 10
1.814270223771231
 20
-0.4181979839697236
 30
0.0
 10
1.796839709500325
 20
-0.4201844240938495
 30
0.0
 10
1.789298184523877
 20
-0.4215221954877565
 30
0.0
 10
1.791369924860961
 20
-0.4221905520586839
 30
0.0
 10
1.791435477670394
 20
-0.422211699810718
 30
0.0
  0
SPLINE
  5
14A
330
1F
100
AcDbEntity
  8
0
  6
Continuous
 62
     7
370
    25
100
AcDbSpline
210
0.0
220
0.0
230
1.0
 70
     8
 71
     3
 72
    10
 73
     6
 74
     0
 42
0.00000001
 43
0.00000001
 40
0.0
 40
0.0
 40
0.0
 40
0.0
 40
0.2660734847089937
 40
0.6432190821464603
 40
0.9999999999999999
 40
0.9999999999999999
 40
0.9999999999999999
 40
0.9999999999999999
 10
1.90344952189522
 20
-0.4311242423372747
 30
0.0
 10
1.908350847087473
 20
-0.4306555693715428
 30
0.0
 10
1.920199550820243
 20
-0.429522576374609
 30
0.0
 10
1.932188245756334
 20
-0.427773427256724
 30
0.0
 10
1.933882090899249
 20
-0.4265032587008624
 30
0.0
 10
1.934705513424801
 20
-0.4258857964703156
 30
0.0
  0
SPLINE
  5
14B
330
1F
100
AcDbEntity
  8
0
  6
Continuous
 62
     7
370
    25
100
AcDbSpline
210
0.0
220
0.0
230
1.0
 70
     8
 71
     3
 72
    17
 73
    13
 74
     0
 42
0.00000001
 43
0.00000001
 40
0.0
 40
0.0
 40
0.0
 40
0.0
 40
0.0199717606539188
 40
0.1220073906834948
 40
0.2264195705655197
 40
0.3317277067918913
 40
0.4415548973774466
 40
0.551299757131433
 40
0.6654106506860681
 40
0.7806114505927295
 40
0.8979692690198662
 40
1.0
 40
1.0
 40
1.0
 40
1.0
 10
1.810101304208991
 20
-0.4112700643953752
 30
0.0
 10
1.810031029394538
 20
-0.4112170563561231
 30
0.0
 10
1.809601720887851
 20
-0.4108932304968776
 30
0.0
 10
1.81568027366642
 20
-0.4102397723878612
 30
0.0
 10
1.828397327839862
 20
-0.4094353508043032
 30
0.0
 10
1.847198809692038
 20
-0.408565063291889
 30
0.0
 10
1.869461503155026
 20
-0.4076911340980602
 30
0.0
 10
1.893205120855277
 20
-0.4068602138925993
 30
0.0
 10
1.915717008895442
 20
-0.4059509232460675
 30
0.0
 10
1.934165548140578
 20
-0.4051452085201418
 30
0.0
 10
1.946809253306566
 20
-0.4043054059038275
 30
0.0
 10
1.948809363644493
 20
-0.4038117664341032
 30
0.0
 10
1.949739552208897
 20
-0.4035821902047481
 30
0.0
  0
SPLINE
  5
14C
330
1F
100
AcDbEntity
  8
0
  6
Continuous
 62
     7
370
    25
100
AcDbSpline
210
0.0
220
0.0
230
1.0
 70
     8
 71
     3
 72
    16
 73
    12
 74
     0
 42
0.00000001
 43
0.00000001
 40
0.0
 40
0.0
 40
0.0
 40
0.0
 40
0.035047893265681
 40
0.1561615851117159
 40
0.2772752769576264
 40
0.3983889688035755
 40
0.5195026606493921
 40
0.6406163524953745
 40
0.7617300443414283
 40
0.8828437361871169
 40
1.0
 40
1.0
 40
1.0
 40
1.0
 10
1.792941505821366
 20
-0.4266164562300025
 30
0.0
 10
1.792258217411556
 20
-0.4264293632143966
 30
0.0
 10
1.789213714840306
 20
-0.4255957398733619
 30
0.0
 10
1.796517595949305
 20
-0.4240912968203822
 30
0.0
 10
1.814366134894324
 20
-0.4221040578068621
 30
0.0
 10
1.842093780755266
 20
-0.4200979387744901
 30
0.0
 10
1.874299394084608
 20
-0.4180832618723769
 30
0.0
 10
1.906477139270319
 20
-0.4160686382292825
 30
0.0
 10
1.933315985178737
 20
-0.4140642177876678
 30
0.0
 10
1.951775151715332
 20
-0.4120970848305674
 30
0.0
 10
1.95394889103707
 20
-0.4108121179039149
 30
0.0
 10
1.955017708869072
 20
-0.4101803054547389
 30
0.0
  0
SPLINE
  5
14E
330
1F
100
AcDbEntity
  8
0
  6
Continuous
 62
     7
370
    25
100
AcDbSpline
210
0.0
220
0.0
230
1.0
 70
     8
 71
     3
 72
    13
 73
     9
 74
     0
 42
0.00000001
 43
0.00000001
 40
0.0
 40
0.0
 40
0.0
 40
0.0
 40
0.1348047632929759
 40
0.32588364154007
 40
0.5169625197872021
 40
0.7080413980339573
 40
0.8991202762813979
 40
0.9999999999999999
 40
0.9999999999999999
 40
0.9999999999999999
 40
0.9999999999999999
 10
1.8573562151317
 20
-0.4312123315245302
 30
0.0
 10
1.862895713485541
 20
-0.4307424389423438
 30
0.0
 10
1.876287168295872
 20
-0.4296064975848208
 30
0.0
 10
1.89826229371019
 20
-0.4278031090688283
 30
0.0
 10
1.918652362724652
 20
-0.4258110129223454
 30
0.0
 10
1.931756703275257
 20
-0.4238328405740043
 30
0.0
 10
1.936691740425481
 20
-0.4221776066698639
 30
0.0
 10
1.933421550398234
 20
-0.4211890966787417
 30
0.0
 10
1.932291609837364
 20
-0.4208475392999693
 30
0.0
  0
SPLINE
  5
151
330
1F
100
AcDbEntity
  8
0
  6
Continuous
 62
     7
370
    25
100
AcDbSpline
210
0.0
220
0.0
230
1.0
 70
     8
 71
     3
 72
     9
 73
     5
 74
     0
 42
0.00000001
 43
0.00000001
 40
0.0
 40
0.0
 40
0.0
 40
0.0
 40
0.559916172010509
 40
1.0
 40
1.0
 40
1.0
 40
1.0
 10
5.771776663559441
 20
-1.068403423301516
 30
0.0
 10
5.777481364622449
 20
-1.066376249698409
 30
0.0
 10
5.787669855950578
 20
-1.062755754873571
 30
0.0
 10
5.797796648739533
 20
-1.058966280832135
 30
0.0
 10
5.802253286475353
 20
-1.057298594589914
 30
0.0
  0
SPLINE
  5
152
330
1F
100
AcDbEntity
  8
0
  6
Continuous
 62
     7
370
    25
100
AcDbSpline
210
0.0
220
0.0
230
1.0
 70
     8
 71
     3
 72
     9
 73
     5
 74
     0
 42
0.00000001
 43
0.00000001
 40
0.0
 40
0.0
 40
0.0
 40
0.0
 40
0.5602243929824866
 40
1.0
 40
1.0
 40
1.0
 40
1.0
 10
5.332878017423926
 20
-0.9107129868247775
 30
0.0
 10
5.336337779214424
 20
-0.9156852613973031
 30
0.0
 10
5.342513450666498
 20
-0.9245607667034085
 30
0.0
 10
5.348837316869028
 20
-0.9333312230062424
 30
0.0
 10
5.351618398966941
 20
-0.9371882557506415
 30
0.0
  0
SPLINE
  5
184
330
1F
100
AcDbEntity
  8
0
  6
Continuous
 62
     7
370
    25
100
AcDbSpline
210
0.0
220
0.0
230
1.0
 70
     8
 71
     3
 72
    11
 73
     7
 74
     0
 42
0.00000001
 43
0.00000001
 40
0.0
 40
0.0
 40
0.0
 40
0.0
 40
0.2499999999999974
 40
0.5000000000000064
 40
0.7499999999999947
 40
1.0
 40
1.0
 40
1.0
 40
1.0
 10
-1.373031496062928
 20
0.5516240602529116
 30
0.0
 10
-1.383077910171884
 20
0.549779702695145
 30
0.0
 10
-1.403170738389789
 20
0.5460909875796117
 30
0.0
 10
-1.42851312420096
 20
0.5405579149063126
 30
0.0
 10
-1.446242655407664
 20
0.535024842233012
 30
0.0
 10
-1.448547551802515
 20
0.53133612711748
 30
0.0
 10
-1.449699999999938
 20
0.529491769559714
 30
0.0
  0
SPLINE
  5
187
330
1F
100
AcDbEntity
  8
0
  6
Continuous
 62
     7
370
    25
100
AcDbSpline
210
0.0
220
0.0
230
1.0
 70
     8
 71
     3
 72
    11
 73
     7
 74
     0
 42
0.00000001
 43
0.00000001
 40
0.0
 40
0.0
 40
0.0
 40
0.0
 40
0.2563240544490881
 40
0.5126481088981548
 40
0.7689721633472464
 40
1.0
 40
1.0
 40
1.0
 40
1.0
 10
-1.449699999999938
 20
0.1850082304402902
 30
0.0
 10
-1.448548543506998
 20
0.1831638728825236
 30
0.0
 10
-1.446245630521113
 20
0.1794751577669904
 30
0.0
 10
-1.428501223747168
 20
0.1739420850936939
 30
0.0
 10
-1.404047172298854
 20
0.168591029167031
 30
0.0
 10
-1.384970320898445
 20
0.1650843307981346
 30
0.0
 10
-1.375926991448717
 20
0.163421989987005
 30
0.0
  0
LINE
  5
1D9
330
1F
100
AcDbEntity
  8
0
  6
Continuous
 62
     7
370
    25
100
AcDbLine
 10
19.7782828722
 20
0.2255375927
 30
0.0
 11
19.7782494279
 21
0.2430375607
 31
0.0
  0
LINE
  5
1DA
330
1F
100
AcDbEntity
  8
0
  6
Continuous
 62
     7
370
    25
100
AcDbLine
 10
3.7782786464
 20
0.2124599233
 30
0.0
 11
3.7783120907
 21
0.1949599552
 31
0.0
  0
LINE
  5
1DB
330
1F
100
AcDbEntity
  8
0
  6
Continuous
 62
     7
370
    25
100
AcDbLine
 10
1.9438360279
 20
-0.4310470595
 30
0.0
 11
1.9349436165
 21
-0.4258964125
 31
0.0
  0
LINE
  5
1DC
330
1F
100
AcDbEntity
  8
0
  6
Continuous
 62
     7
370
    25
100
AcDbLine
 10
1.9551758426
 20
-0.4064048543
 30
0.0
 11
1.9498798844
 21
-0.4033347704
 31
0.0
  0
LINE
  5
1DD
330
1F
100
AcDbEntity
  8
0
  6
Continuous
 62
     7
370
    25
100
AcDbLine
 10
1.9551972071
 20
-0.4007411262
 30
0.0
 11
1.9551940263
 21
-0.3990767252
 31
0.0
  0
LINE
  5
1DE
330
1F
100
AcDbEntity
  8
0
  6
Continuous
 62
     7
370
    25
100
AcDbLine
 10
1.9552152457
 20
-0.4101799279
 30
0.0
 11
1.9552077804
 21
-0.4062736851
 31
0.0
  0
LINE
  5
1DF
330
1F
100
AcDbEntity
  8
0
  6
Continuous
 62
     7
370
    25
100
AcDbLine
 10
1.7912379409
 20
-0.4222120773
 30
0.0
 11
1.7912454061
 21
-0.4261183202
 31
0.0
  0
LINE
  5
1E0
330
1F
100
AcDbEntity
  8
0
  6
Continuous
 62
     7
370
    25
100
AcDbLine
 10
1.7911943258
 20
-0.399390146
 30
0.0
 11
1.7911975066
 21
-0.401054547
 31
0.0
  0
LINE
  5
1E1
330
1F
100
AcDbEntity
  8
0
  6
Continuous
 62
     7
370
    25
100
AcDbLine
 10
1.7911975066
 20
-0.401054547
 30
0.0
 11
1.8101346623
 21
-0.4119499924
 31
0.0
  0
LINE
  5
1E2
330
1F
100
AcDbEntity
  8
0
  6
Continuous
 62
     7
370
    25
100
AcDbLine
 10
1.7916407123
 20
-0.4265885861
 30
0.0
 11
1.7998248704
 21
-0.43132228
 31
0.0
  0
LINE
  5
1E3
330
1F
100
AcDbEntity
  8
0
  6
Continuous
 62
     7
370
    25
100
AcDbLine
 10
21.1503392624
 20
0.1680015332
 30
0.0
 11
21.150682284
 21
0.1682018262
 31
0.0
  0
LINE
  5
1E4
330
1F
100
AcDbEntity
  8
0
  6
Continuous
 62
     7
370
    25
100
AcDbLine
 10
21.5253385776
 20
0.1687181966
 30
0.0
 11
21.5256815992
 21
0.1689184895
 31
0.0
  0
LINE
  5
1E5
330
1F
100
AcDbEntity
  8
0
  6
Continuous
 62
     7
370
    25
100
AcDbLine
 10
1.375
 20
-15.0691832167
 30
0.0
 11
2.1113631938
 21
-12.711307314
 31
0.0
  0
LINE
  5
1E6
330
1F
100
AcDbEntity
  8
0
  6
Continuous
 62
     7
370
    25
100
AcDbLine
 10
1.7355622175
 20
-12.5939449003
 30
0.0
 11
1.375
 21
-13.7484851748
 31
0.0
  0
LINE
  5
1E7
330
1F
100
AcDbEntity
  8
0
  6
Continuous
 62
     7
370
    25
100
AcDbLine
 10
5.3350215214
 20
-0.6720665971
 30
0.0
 11
5.2669248708
 21
-0.8901158597
 31
0.0
  0
LINE
  5
1E8
330
1F
100
AcDbEntity
  8
0
  6
Continuous
 62
     7
370
    25
100
AcDbLine
 10
5.8435482635
 20
-1.0908176498
 30
0.0
 11
5.868206433
 21
-1.0778957217
 31
0.0
  0
LINE
  5
1E9
330
1F
100
AcDbEntity
  8
0
  6
Continuous
 62
     7
370
    25
100
AcDbLine
 10
5.868206433
 20
-1.0778957217
 30
0.0
 11
5.9953407221
 21
-0.6708046572
 31
0.0
  0
LINE
  5
1EA
330
1F
100
AcDbEntity
  8
0
  6
Continuous
 62
     7
370
    25
100
AcDbLine
 10
5.2669248708
 20
-0.8901158597
 30
0.0
 11
5.279846799
 21
-0.9147740292
 31
0.0
  0
LINE
  5
1EB
330
1F
100
AcDbEntity
  8
0
  6
Continuous
 62
     7
370
    25
100
AcDbLine
 10
2.3937163282
 20
-12.5996156987
 30
0.0
 11
5.9090727066
 21
-1.3432490533
 31
0.0
  0
LINE
  5
1EC
330
1F
100
AcDbEntity
  8
0
  6
Continuous
 62
     7
370
    25
100
AcDbLine
 10
5.0823105586
 20
-1.0850517431
 30
0.0
 11
1.5669541802
 21
-12.3414183885
 31
0.0
  0
LINE
  5
1ED
330
1F
100
AcDbEntity
  8
0
  6
Continuous
 62
     7
370
    25
100
AcDbLine
 10
5.8675131149
 20
-1.1395471768
 30
0.0
 11
5.8792493563
 21
-1.1019670791
 31
0.0
  0
LINE
  5
1EE
330
1F
100
AcDbEntity
  8
0
  6
Continuous
 62
     7
370
    25
100
AcDbLine
 10
5.2441457062
 20
-0.9036245999
 30
0.0
 11
5.2324094649
 21
-0.9412046976
 31
0.0
  0
LINE
  5
1EF
330
1F
100
AcDbEntity
  8
0
  6
Continuous
 62
     7
370
    25
100
AcDbLine
 10
5.2324094649
 20
-0.9412046976
 30
0.0
 11
5.2530893868
 21
-0.9543000137
 31
0.0
  0
LINE
  5
1F0
330
1F
100
AcDbEntity
  8
0
  6
Continuous
 62
     7
370
    25
100
AcDbLine
 10
5.843056119
 20
-1.1385462613
 30
0.0
 11
5.8675131149
 21
-1.1395471768
 31
0.0
  0
LINE
  5
1F1
330
1F
100
AcDbEntity
  8
0
  6
Continuous
 62
     7
370
    25
100
AcDbLine
 10
2.2414827741
 20
-12.7436945152
 30
0.0
 11
2.2467640827
 21
-12.7267834712
 31
0.0
  0
LINE
  5
1F2
330
1F
100
AcDbEntity
  8
0
  6
Continuous
 62
     7
370
    25
100
AcDbLine
 10
1.6154184424
 20
-12.5296146162
 30
0.0
 11
1.6101371338
 21
-12.5465256601
 31
0.0
  0
LINE
  5
1F3
330
1F
100
AcDbEntity
  8
0
  6
Continuous
 62
     7
370
    25
100
AcDbLine
 10
2.2467640827
 20
-12.7267834712
 30
0.0
 11
2.2418818393
 21
-12.7161474239
 31
0.0
  0
LINE
  5
1F4
330
1F
100
AcDbEntity
  8
0
  6
Continuous
 62
     7
370
    25
100
AcDbLine
 10
1.6254858909
 20
-12.5236473485
 30
0.0
 11
1.6154184424
 21
-12.5296146161
 31
0.0
  0
LINE
  5
1F5
330
1F
100
AcDbEntity
  8
0
  6
Continuous
 62
     7
370
    25
100
AcDbLine
 10
1.6101371338
 20
-12.5465256601
 30
0.0
 11
1.615305905
 21
-12.5563889279
 31
0.0
  0
LINE
  5
1F6
330
1F
100
AcDbEntity
  8
0
  6
Continuous
 62
     7
370
    25
100
AcDbLine
 10
2.2316195063
 20
-12.7488632864
 30
0.0
 11
2.2414827741
 21
-12.7436945152
 31
0.0
  0
LINE
  5
1F7
330
1F
100
AcDbEntity
  8
0
  6
Continuous
 62
     7
370
    25
100
AcDbLine
 10
2.2418818393
 20
-12.7161474239
 30
0.0
 11
2.2227950583
 21
-12.7079101524
 31
0.0
  0
LINE
  5
1F8
330
1F
100
AcDbEntity
  8
0
  6
Continuous
 62
     7
370
    25
100
AcDbLine
 10
1.6458682049
 20
-12.527736251
 30
0.0
 11
1.6254858909
 21
-12.5236473485
 31
0.0
  0
LINE
  5
1F9
330
1F
100
AcDbEntity
  8
0
  6
Continuous
 62
     7
370
    25
100
AcDbLine
 10
22.0538514411
 20
-0.069796353
 30
0.0
 11
22.0518502457
 21
0.9773436629
 31
0.0
  0
LINE
  5
1FA
330
1F
100
AcDbEntity
  8
0
  6
Continuous
 62
     7
370
    25
100
AcDbLine
 10
22.0518502457
 20
0.9773436629
 30
0.0
 11
22.083150278
 21
0.9511937553
 31
0.0
  0
LINE
  5
1FB
330
1F
100
AcDbEntity
  8
0
  6
Continuous
 62
     7
370
    25
100
AcDbLine
 10
22.083150278
 20
0.9511937553
 30
0.0
 11
22.085101384
 21
-0.0697366311
 31
0.0
  0
LINE
  5
1FC
330
1F
100
AcDbEntity
  8
0
  6
Continuous
 62
     7
370
    25
100
AcDbLine
 10
22.0847030487
 20
0.1386952391
 30
0.0
 11
21.9890782233
 21
0.1385124899
 31
0.0
  0
LINE
  5
1FD
330
1F
100
AcDbEntity
  8
0
  6
Continuous
 62
     7
370
    25
100
AcDbLine
 10
22.0186126992
 20
1.0362028039
 30
0.0
 11
22.0203281662
 21
0.1385722119
 31
0.0
  0
LINE
  5
1FE
330
1F
100
AcDbEntity
  8
0
  6
Continuous
 62
     7
370
    25
100
AcDbLine
 10
21.7390996994
 20
1.1081452217
 30
0.0
 11
21.8622244746
 21
1.1083805262
 31
0.0
  0
LINE
  5
1FF
330
1F
100
AcDbEntity
  8
0
  6
Continuous
 62
     7
370
    25
100
AcDbLine
 10
21.7390425741
 20
1.1380364715
 30
0.0
 11
21.7394009058
 21
0.9505368139
 31
0.0
  0
LINE
  5
200
330
1F
100
AcDbEntity
  8
0
  6
Continuous
 62
     7
370
    25
100
AcDbLine
 10
21.7390425741
 20
1.1380364715
 30
0.0
 11
21.8952922887
 21
1.1383350812
 31
0.0
  0
LINE
  5
201
330
1F
100
AcDbEntity
  8
0
  6
Continuous
 62
     7
370
    25
100
AcDbLine
 10
21.9890782233
 20
0.1385124899
 30
0.0
 11
21.9874163646
 21
1.0080921259
 31
0.0
  0
LINE
  5
202
330
1F
100
AcDbEntity
  8
0
  6
Continuous
 62
     7
370
    25
100
AcDbLine
 10
22.0186126992
 20
1.0362028039
 30
0.0
 11
21.9874163646
 21
1.0080921259
 31
0.0
  0
LINE
  5
203
330
1F
100
AcDbEntity
  8
0
  6
Continuous
 62
     7
370
    25
100
AcDbLine
 10
21.8749107157
 20
-0.4902409475
 30
0.0
 11
22.0393382575
 21
-0.1358583132
 31
0.0
  0
LINE
  5
204
330
1F
100
AcDbEntity
  8
0
  6
Continuous
 62
     7
370
    25
100
AcDbLine
 10
21.8643770613
 20
-0.0179761125
 30
0.0
 11
21.8100021606
 21
-0.0180800287
 31
0.0
  0
LINE
  5
205
330
1F
100
AcDbEntity
  8
0
  6
Continuous
 62
     7
370
    25
100
AcDbLine
 10
22.0538514411
 20
-0.069796353
 30
0.0
 11
22.085101384
 21
-0.0697366311
 31
0.0
  0
LINE
  5
206
330
1F
100
AcDbEntity
  8
0
  6
Continuous
 62
     7
370
    25
100
AcDbLine
 10
22.0393382575
 20
-0.1358583132
 30
0.0
 11
22.0676855637
 21
-0.1490109833
 31
0.0
  0
LINE
  5
207
330
1F
100
AcDbEntity
  8
0
  6
Continuous
 62
     7
370
    25
100
AcDbLine
 10
22.0676855637
 20
-0.1490109833
 30
0.0
 11
21.9032580219
 21
-0.5033936176
 31
0.0
  0
LINE
  5
208
330
1F
100
AcDbEntity
  8
0
  6
Continuous
 62
     7
370
    25
100
AcDbLine
 10
21.8749107157
 20
-0.4902409475
 30
0.0
 11
21.9032580219
 21
-0.5033936176
 31
0.0
  0
LINE
  5
209
330
1F
100
AcDbEntity
  8
0
  6
Continuous
 62
     7
370
    25
100
AcDbLine
 10
21.8099424386
 20
0.0131699142
 30
0.0
 11
21.8643173394
 21
0.0132738304
 31
0.0
  0
LINE
  5
20A
330
1F
100
AcDbEntity
  8
0
  6
Continuous
 62
     7
370
    25
100
AcDbLine
 10
21.8643770613
 20
-0.0179761125
 30
0.0
 11
21.8643173394
 21
0.0132738304
 31
0.0
  0
LINE
  5
20B
330
1F
100
AcDbEntity
  8
0
  6
Continuous
 62
     7
370
    25
100
AcDbLine
 10
21.8625256809
 20
0.9507721184
 30
0.0
 11
21.8622244746
 21
1.1083805262
 31
0.0
  0
LINE
  5
20C
330
1F
100
AcDbEntity
  8
0
  6
Continuous
 62
     7
370
    25
100
AcDbLine
 10
21.8625256809
 20
0.9507721184
 30
0.0
 11
21.7394009058
 21
0.9505368139
 31
0.0
  0
LINE
  5
20D
330
1F
100
AcDbEntity
  8
0
  6
Continuous
 62
     7
370
    25
100
AcDbLine
 10
21.7394009058
 20
0.9505368139
 30
0.0
 11
21.7080912409
 21
0.9817270349
 31
0.0
  0
LINE
  5
20E
330
1F
100
AcDbEntity
  8
0
  6
Continuous
 62
     7
370
    25
100
AcDbLine
 10
21.7080912409
 20
0.9817270349
 30
0.0
 11
21.7078523531
 21
1.1067268066
 31
0.0
  0
LINE
  5
20F
330
1F
100
AcDbEntity
  8
0
  6
Continuous
 62
     7
370
    25
100
AcDbLine
 10
21.7390996994
 20
1.1081452217
 30
0.0
 11
21.7079076933
 21
1.0777696584
 31
0.0
  0
LINE
  5
210
330
1F
100
AcDbEntity
  8
0
  6
Continuous
 62
     7
370
    25
100
AcDbLine
 10
21.7390425741
 20
1.1380364715
 30
0.0
 11
21.7078523531
 21
1.1067268066
 31
0.0
  0
LINE
  5
211
330
1F
100
AcDbEntity
  8
0
  6
Continuous
 62
     7
370
    25
100
AcDbLine
 10
1.7262495687
 20
-0.427953814
 30
0.0
 11
1.7511323086
 21
-0.4029757849
 31
0.0
  0
LINE
  5
212
330
1F
100
AcDbEntity
  8
0
  6
Continuous
 62
     7
370
    25
100
AcDbLine
 10
1.5420090548
 20
-0.4318149933
 30
0.0
 11
2.0607548906
 21
-0.4308236151
 31
0.0
  0
LINE
  5
213
330
1F
100
AcDbEntity
  8
0
  6
Continuous
 62
     7
370
    25
100
AcDbLine
 10
1.5085526911
 20
-0.4034393802
 30
0.0
 11
1.5335307202
 21
-0.4283221201
 31
0.0
  0
LINE
  5
214
330
1F
100
AcDbEntity
  8
0
  6
Continuous
 62
     7
370
    25
100
AcDbLine
 10
1.375
 20
-0.4001855374
 30
0.0
 11
1.5000743566
 21
-0.399946507
 31
0.0
  0
LINE
  5
215
330
1F
100
AcDbEntity
  8
0
  6
Continuous
 62
     7
370
    25
100
AcDbLine
 10
2.0580155327
 20
-0.2990407601
 30
0.0
 11
1.375
 21
-0.300346075
 31
0.0
  0
LINE
  5
216
330
1F
100
AcDbEntity
  8
0
  6
Continuous
 62
     7
370
    25
100
AcDbLine
 10
1.8955995323
 20
-0.3991906166
 30
0.0
 11
1.8954087292
 21
-0.2993515189
 31
0.0
  0
LINE
  5
217
330
1F
100
AcDbEntity
  8
0
  6
Continuous
 62
     7
370
    25
100
AcDbLine
 10
1.7595972307
 20
-0.3994505313
 30
0.0
 11
2.0606938336
 21
-0.3988751039
 31
0.0
  0
LINE
  5
218
330
1F
100
AcDbEntity
  8
0
  6
Continuous
 62
     7
370
    25
100
AcDbLine
 10
1.9579086151
 20
-0.299232075
 30
0.0
 11
1.9580994182
 21
-0.3990711727
 31
0.0
  0
LINE
  5
219
330
1F
100
AcDbEntity
  8
0
  6
Continuous
 62
     7
370
    25
100
AcDbLine
 10
2.0580155327
 20
-0.2990407601
 30
0.0
 11
2.0605038432
 21
-0.2994612628
 31
0.0
  0
LINE
  5
21A
330
1F
100
AcDbEntity
  8
0
  6
Continuous
 62
     7
370
    25
100
AcDbLine
 10
-0.2935
 20
4.364
 30
0.0
 11
-0.2035
 21
4.364
 31
0.0
  0
LINE
  5
21B
330
1F
100
AcDbEntity
  8
0
  6
Continuous
 62
     7
370
    25
100
AcDbLine
 10
-0.2035
 20
4.704
 30
0.0
 11
-0.2035
 21
4.364
 31
0.0
  0
LINE
  5
21C
330
1F
100
AcDbEntity
  8
0
  6
Continuous
 62
     7
370
    25
100
AcDbLine
 10
-0.2935
 20
4.704
 30
0.0
 11
-0.2035
 21
4.704
 31
0.0
  0
LINE
  5
21D
330
1F
100
AcDbEntity
  8
0
  6
Continuous
 62
     7
370
    25
100
AcDbLine
 10
-0.2935
 20
4.704
 30
0.0
 11
-0.2935
 21
4.364
 31
0.0
  0
LINE
  5
21E
330
1F
100
AcDbEntity
  8
0
  6
Continuous
 62
     7
370
    25
100
AcDbLine
 10
0.2035
 20
4.394
 30
0.0
 11
0.2935
 21
4.394
 31
0.0
  0
LINE
  5
21F
330
1F
100
AcDbEntity
  8
0
  6
Continuous
 62
     7
370
    25
100
AcDbLine
 10
0.2935
 20
4.674
 30
0.0
 11
0.2935
 21
4.394
 31
0.0
  0
LINE
  5
220
330
1F
100
AcDbEntity
  8
0
  6
Continuous
 62
     7
370
    25
100
AcDbLine
 10
0.2035
 20
4.674
 30
0.0
 11
0.2935
 21
4.674
 31
0.0
  0
LINE
  5
221
330
1F
100
AcDbEntity
  8
0
  6
Continuous
 62
     7
370
    25
100
AcDbLine
 10
0.2035
 20
4.674
 30
0.0
 11
0.2035
 21
4.394
 31
0.0
  0
LINE
  5
222
330
1F
100
AcDbEntity
  8
0
  6
Continuous
 62
     7
370
    25
100
AcDbLine
 10
-0.2935
 20
6.064
 30
0.0
 11
-0.2035
 21
6.064
 31
0.0
  0
LINE
  5
223
330
1F
100
AcDbEntity
  8
0
  6
Continuous
 62
     7
370
    25
100
AcDbLine
 10
-0.2035
 20
6.404
 30
0.0
 11
-0.2035
 21
6.064
 31
0.0
  0
LINE
  5
224
330
1F
100
AcDbEntity
  8
0
  6
Continuous
 62
     7
370
    25
100
AcDbLine
 10
-0.2935
 20
6.404
 30
0.0
 11
-0.2035
 21
6.404
 31
0.0
  0
LINE
  5
225
330
1F
100
AcDbEntity
  8
0
  6
Continuous
 62
     7
370
    25
100
AcDbLine
 10
-0.2935
 20
6.404
 30
0.0
 11
-0.2935
 21
6.064
 31
0.0
  0
LINE
  5
226
330
1F
100
AcDbEntity
  8
0
  6
Continuous
 62
     7
370
    25
100
AcDbLine
 10
0.2035
 20
6.094
 30
0.0
 11
0.2935
 21
6.094
 31
0.0
  0
LINE
  5
227
330
1F
100
AcDbEntity
  8
0
  6
Continuous
 62
     7
370
    25
100
AcDbLine
 10
0.2935
 20
6.374
 30
0.0
 11
0.2935
 21
6.094
 31
0.0
  0
LINE
  5
228
330
1F
100
AcDbEntity
  8
0
  6
Continuous
 62
     7
370
    25
100
AcDbLine
 10
0.2035
 20
6.374
 30
0.0
 11
0.2935
 21
6.374
 31
0.0
  0
LINE
  5
229
330
1F
100
AcDbEntity
  8
0
  6
Continuous
 62
     7
370
    25
100
AcDbLine
 10
0.2035
 20
6.374
 30
0.0
 11
0.2035
 21
6.094
 31
0.0
  0
LINE
  5
22A
330
1F
100
AcDbEntity
  8
0
  6
Continuous
 62
     7
370
    25
100
AcDbLine
 10
0.107
 20
5.6815
 30
0.0
 11
0.107
 21
5.7885
 31
0.0
  0
LINE
  5
22B
330
1F
100
AcDbEntity
  8
0
  6
Continuous
 62
     7
370
    25
100
AcDbLine
 10
-0.107
 20
5.6815
 30
0.0
 11
-0.107
 21
5.7885
 31
0.0
  0
LINE
  5
22C
330
1F
100
AcDbEntity
  8
0
  6
Continuous
 62
     7
370
    25
100
AcDbLine
 10
-0.107
 20
5.6815
 30
0.0
 11
0.107
 21
5.6815
 31
0.0
  0
LINE
  5
22D
330
1F
100
AcDbEntity
  8
0
  6
Continuous
 62
     7
370
    25
100
AcDbLine
 10
-0.64
 20
6.474
 30
0.0
 11
-0.64
 21
4.026
 31
0.0
  0
LINE
  5
22E
330
1F
100
AcDbEntity
  8
0
  6
Continuous
 62
     7
370
    25
100
AcDbLine
 10
0.56
 20
6.554
 30
0.0
 11
-0.56
 21
6.554
 31
0.0
  0
LINE
  5
22F
330
1F
100
AcDbEntity
  8
0
  6
Continuous
 62
     7
370
    25
100
AcDbLine
 10
0.64
 20
4.026
 30
0.0
 11
0.64
 21
6.474
 31
0.0
  0
LINE
  5
230
330
1F
100
AcDbEntity
  8
0
  6
Continuous
 62
     7
370
    25
100
AcDbLine
 10
-0.56
 20
3.946
 30
0.0
 11
0.56
 21
3.946
 31
0.0
  0
LINE
  5
231
330
1F
100
AcDbEntity
  8
0
  6
Continuous
 62
     7
370
    25
100
AcDbLine
 10
0.107
 20
3.9815
 30
0.0
 11
0.107
 21
4.0885
 31
0.0
  0
LINE
  5
232
330
1F
100
AcDbEntity
  8
0
  6
Continuous
 62
     7
370
    25
100
AcDbLine
 10
-0.107
 20
3.9815
 30
0.0
 11
-0.107
 21
4.0885
 31
0.0
  0
LINE
  5
233
330
1F
100
AcDbEntity
  8
0
  6
Continuous
 62
     7
370
    25
100
AcDbLine
 10
-0.107
 20
3.9815
 30
0.0
 11
0.107
 21
3.9815
 31
0.0
  0
LINE
  5
234
330
1F
100
AcDbEntity
  8
0
  6
Continuous
 62
     7
370
    25
100
AcDbLine
 10
-0.373
 20
3.93
 30
0.0
 11
-0.373
 21
3.946
 31
0.0
  0
LINE
  5
235
330
1F
100
AcDbEntity
  8
0
  6
Continuous
 62
     7
370
    25
100
AcDbLine
 10
0.373
 20
3.93
 30
0.0
 11
0.373
 21
3.946
 31
0.0
  0
LINE
  5
236
330
1F
100
AcDbEntity
  8
0
  6
Continuous
 62
     7
370
    25
100
AcDbLine
 10
0.373
 20
6.554
 30
0.0
 11
0.373
 21
6.57
 31
0.0
  0
LINE
  5
237
330
1F
100
AcDbEntity
  8
0
  6
Continuous
 62
     7
370
    25
100
AcDbLine
 10
-0.373
 20
6.554
 30
0.0
 11
-0.373
 21
6.57
 31
0.0
  0
LINE
  5
238
330
1F
100
AcDbEntity
  8
0
  6
Continuous
 62
     7
370
    25
100
AcDbLine
 10
3.5907789888
 20
0.2121015916
 30
0.0
 11
3.5908124331
 21
0.1946016235
 31
0.0
  0
LINE
  5
239
330
1F
100
AcDbEntity
  8
0
  6
Continuous
 62
     7
370
    25
100
AcDbLine
 10
19.9657490855
 20
0.2433958924
 30
0.0
 11
19.9657825297
 21
0.2258959244
 31
0.0
  0
LINE
  5
23A
330
1F
100
AcDbEntity
  8
0
  6
Continuous
 62
     7
370
    25
100
AcDbLine
 10
20.9344973164
 20
0.2452472728
 30
0.0
 11
20.9344590943
 21
0.2652472363
 31
0.0
  0
LINE
  5
23B
330
1F
100
AcDbEntity
  8
0
  6
Continuous
 62
     7
370
    25
100
AcDbLine
 10
1.8094940196
 20
0.228697404
 30
0.0
 11
1.8095322416
 21
0.2086974405
 31
0.0
  0
LINE
  5
23C
330
1F
100
AcDbEntity
  8
0
  6
Continuous
 62
     7
370
    25
100
AcDbLine
 10
1.6844942479
 20
0.2284585162
 30
0.0
 11
21.8094574964
 21
0.2669194508
 31
0.0
  0
LINE
  5
23D
330
1F
100
AcDbEntity
  8
0
  6
Continuous
 62
     7
370
    25
100
AcDbLine
 10
1.6845324699
 20
0.2084585528
 30
0.0
 11
21.8094957185
 21
0.2469194873
 31
0.0
  0
LINE
  5
23E
330
1F
100
AcDbEntity
  8
0
  6
Continuous
 62
     7
370
    25
100
AcDbLine
 10
1.6845324699
 20
0.2084585528
 30
0.0
 11
1.6844942479
 21
0.2284585162
 31
0.0
  0
LINE
  5
23F
330
1F
100
AcDbEntity
  8
0
  6
Continuous
 62
     7
370
    25
100
AcDbLine
 10
21.8094574964
 20
0.2669194508
 30
0.0
 11
21.8094957185
 21
0.2469194873
 31
0.0
  0
LINE
  5
240
330
1F
100
AcDbEntity
  8
0
  6
Continuous
 62
     7
370
    25
100
AcDbLine
 10
1.9343743474
 20
0.2914361777
 30
0.0
 11
1.9344937913
 21
0.2289362918
 31
0.0
  0
LINE
  5
241
330
1F
100
AcDbEntity
  8
0
  6
Continuous
 62
     7
370
    25
100
AcDbLine
 10
2.9344919652
 20
0.2308473942
 30
0.0
 11
2.9343725213
 21
0.29334728
 31
0.0
  0
LINE
  5
242
330
1F
100
AcDbEntity
  8
0
  6
Continuous
 62
     7
370
    25
100
AcDbLine
 10
20.5593403352
 20
0.3270304588
 30
0.0
 11
20.5594597791
 21
0.2645305729
 31
0.0
  0
LINE
  5
243
330
1F
100
AcDbEntity
  8
0
  6
Continuous
 62
     7
370
    25
100
AcDbLine
 10
21.559457953
 20
0.2664416752
 30
0.0
 11
21.5593385091
 21
0.3289415611
 31
0.0
  0
LINE
  5
244
330
1F
100
AcDbEntity
  8
0
  6
Continuous
 62
     7
370
    25
100
AcDbLine
 10
19.7469612629
 20
0.2629778022
 30
0.0
 11
19.746841819
 21
0.3254776881
 31
0.0
  0
LINE
  5
245
330
1F
100
AcDbEntity
  8
0
  6
Continuous
 62
     7
370
    25
100
AcDbLine
 10
3.7469904814
 20
0.2324001648
 30
0.0
 11
3.7468710375
 21
0.2949000507
 31
0.0
  0
LINE
  5
246
330
1F
100
AcDbEntity
  8
0
  6
Continuous
 62
     7
370
    25
100
AcDbLine
 10
1.558115479
 20
0.2957171163
 30
0.0
 11
21.9355782665
 21
0.3346606042
 31
0.0
  0
LINE
  5
247
330
1F
100
AcDbEntity
  8
0
  6
Continuous
 62
     7
370
    25
100
AcDbLine
 10
20.9655704823
 20
0.3378068258
 30
0.0
 11
20.9655895934
 21
0.3278068441
 31
0.0
  0
LINE
  5
248
330
1F
100
AcDbEntity
  8
0
  6
Continuous
 62
     7
370
    25
100
AcDbLine
 10
1.5581250345
 20
0.2907171254
 30
0.0
 11
21.935587822
 21
0.3296606133
 31
0.0
  0
LINE
  5
249
330
1F
100
AcDbEntity
  8
0
  6
Continuous
 62
     7
370
    25
100
AcDbLine
 10
1.5581059235
 20
0.3007171072
 30
0.0
 11
1.5581250345
 21
0.2907171254
 31
0.0
  0
LINE
  5
24A
330
1F
100
AcDbEntity
  8
0
  6
Continuous
 62
     7
370
    25
100
AcDbLine
 10
21.935568711
 20
0.3396605951
 30
0.0
 11
21.935587822
 21
0.3296606133
 31
0.0
  0
LINE
  5
24B
330
1F
100
AcDbEntity
  8
0
  6
Continuous
 62
     7
370
    25
100
AcDbLine
 10
1.5581059235
 20
0.3007171072
 30
0.0
 11
21.935568711
 21
0.3396605951
 31
0.0
  0
LINE
  5
24C
330
1F
100
AcDbEntity
  8
0
  6
Continuous
 62
     7
370
    25
100
AcDbLine
 10
1.455980315
 20
20.97
 30
0.0
 11
1.455980315
 21
0.655
 31
0.0
  0
LINE
  5
24D
330
1F
100
AcDbEntity
  8
0
  6
Continuous
 62
     7
370
    25
100
AcDbLine
 10
1.425980315
 20
0.625
 30
0.0
 11
1.425980315
 21
21.0
 31
0.0
  0
LINE
  5
24E
330
1F
100
AcDbEntity
  8
0
  6
Continuous
 62
     7
370
    25
100
AcDbLine
 10
1.425980315
 20
0.625
 30
0.0
 11
1.375
 21
0.625
 31
0.0
  0
LINE
  5
24F
330
1F
100
AcDbEntity
  8
0
  6
Continuous
 62
     7
370
    25
100
AcDbLine
 10
1.375
 20
21.0
 30
0.0
 11
1.425980315
 21
21.0
 31
0.0
  0
LINE
  5
250
330
1F
100
AcDbEntity
  8
0
  6
Continuous
 62
     7
370
    25
100
AcDbLine
 10
21.9340731742
 20
0.4681382865
 30
0.0
 11
1.5591103822
 21
0.4291995764
 31
0.0
  0
LINE
  5
251
330
1F
100
AcDbEntity
  8
0
  6
Continuous
 62
     7
370
    25
100
AcDbLine
 10
1.5890529943
 20
0.4592568547
 30
0.0
 11
21.9040158959
 21
0.4980808987
 31
0.0
  0
LINE
  5
252
330
1F
100
AcDbEntity
  8
0
  6
Continuous
 62
     7
370
    25
100
AcDbLine
 10
1.559296677
 20
0.3317194394
 30
0.0
 11
21.9342594691
 21
0.3706581496
 31
0.0
  0
LINE
  5
253
330
1F
100
AcDbEntity
  8
0
  6
Continuous
 62
     7
370
    25
100
AcDbLine
 10
21.9043168569
 20
0.3406008713
 30
0.0
 11
1.5893539553
 21
0.3017768273
 31
0.0
  0
LINE
  5
254
330
1F
100
AcDbEntity
  8
0
  6
Continuous
 62
     7
370
    25
100
AcDbLine
 10
20.9343186283
 20
0.338747102
 30
0.0
 11
20.9340176673
 21
0.4962271294
 31
0.0
  0
LINE
  5
255
330
1F
100
AcDbEntity
  8
0
  6
Continuous
 62
     7
370
    25
100
AcDbLine
 10
1.5591103822
 20
0.4291995764
 30
0.0
 11
1.559296677
 21
0.3317194394
 31
0.0
  0
LINE
  5
256
330
1F
100
AcDbEntity
  8
0
  6
Continuous
 62
     7
370
    25
100
AcDbLine
 10
21.9340731742
 20
0.4681382865
 30
0.0
 11
21.9342594691
 21
0.3706581496
 31
0.0
  0
LINE
  5
257
330
1F
100
AcDbEntity
  8
0
  6
Continuous
 62
     7
370
    25
100
AcDbLine
 10
1.9551972071
 20
-0.4007411262
 30
0.0
 11
1.7911975066
 21
-0.401054547
 31
0.0
  0
LINE
  5
258
330
1F
100
AcDbEntity
  8
0
  6
Continuous
 62
     7
370
    25
100
AcDbLine
 10
5.4074503664
 20
-0.6719281779
 30
0.0
 11
5.3328780174
 21
-0.9107129868
 31
0.0
  0
LINE
  5
259
330
1F
100
AcDbEntity
  8
0
  6
Continuous
 62
     7
370
    25
100
AcDbLine
 10
5.8022532865
 20
-1.0572985946
 30
0.0
 11
5.9229118771
 21
-0.6709430764
 31
0.0
  0
LINE
  5
25A
330
1F
100
AcDbEntity
  8
0
  6
Continuous
 62
     7
370
    25
100
AcDbLine
 10
5.2669248708
 20
-0.8901158597
 30
0.0
 11
5.3328780174
 21
-0.9107129868
 31
0.0
  0
LINE
  5
25B
330
1F
100
AcDbEntity
  8
0
  6
Continuous
 62
     7
370
    25
100
AcDbLine
 10
5.8022532865
 20
-1.0572985946
 30
0.0
 11
5.868206433
 21
-1.0778957217
 31
0.0
  0
LINE
  5
25C
330
1F
100
AcDbEntity
  8
0
  6
Continuous
 62
     7
370
    25
100
AcDbLine
 10
5.843056119
 20
-1.1385462613
 30
0.0
 11
5.2530893868
 21
-0.9543000137
 31
0.0
  0
LINE
  5
25D
330
1F
100
AcDbEntity
  8
0
  6
Continuous
 62
     7
370
    25
100
AcDbLine
 10
5.9090727066
 20
-1.3432490533
 30
0.0
 11
5.0823105586
 21
-1.0850517431
 31
0.0
  0
LINE
  5
25E
330
1F
100
AcDbEntity
  8
0
  6
Continuous
 62
     7
370
    25
100
AcDbLine
 10
2.3937163282
 20
-12.5996156987
 30
0.0
 11
1.5669541802
 21
-12.3414183885
 31
0.0
  0
LINE
  5
25F
330
1F
100
AcDbEntity
  8
0
  6
Continuous
 62
     7
370
    25
100
AcDbLine
 10
2.2227950583
 20
-12.7079101524
 30
0.0
 11
1.6458682049
 21
-12.527736251
 31
0.0
  0
LINE
  5
260
330
1F
100
AcDbEntity
  8
0
  6
Continuous
 62
     7
370
    25
100
AcDbLine
 10
5.8675131149
 20
-1.1395471768
 30
0.0
 11
5.2324094649
 21
-0.9412046976
 31
0.0
  0
LINE
  5
261
330
1F
100
AcDbEntity
  8
0
  6
Continuous
 62
     7
370
    25
100
AcDbLine
 10
5.8792493563
 20
-1.1019670791
 30
0.0
 11
5.2441457062
 21
-0.9036245999
 31
0.0
  0
LINE
  5
262
330
1F
100
AcDbEntity
  8
0
  6
Continuous
 62
     7
370
    25
100
AcDbLine
 10
2.2414827741
 20
-12.7436945152
 30
0.0
 11
1.6101371338
 21
-12.5465256601
 31
0.0
  0
LINE
  5
263
330
1F
100
AcDbEntity
  8
0
  6
Continuous
 62
     7
370
    25
100
AcDbLine
 10
2.2467640827
 20
-12.7267834712
 30
0.0
 11
1.6154184424
 21
-12.5296146161
 31
0.0
  0
LINE
  5
264
330
1F
100
AcDbEntity
  8
0
  6
Continuous
 62
     7
370
    25
100
AcDbLine
 10
2.2418818393
 20
-12.7161474239
 30
0.0
 11
1.6254858909
 21
-12.5236473485
 31
0.0
  0
LINE
  5
265
330
1F
100
AcDbEntity
  8
0
  6
Continuous
 62
     7
370
    25
100
AcDbLine
 10
2.2316195063
 20
-12.7488632864
 30
0.0
 11
1.615305905
 21
-12.5563889279
 31
0.0
  0
LINE
  5
266
330
1F
100
AcDbEntity
  8
0
  6
Continuous
 62
     7
370
    25
100
AcDbLine
 10
1.515980315
 20
20.4083484861
 30
0.0
 11
1.515980315
 21
19.8416515139
 31
0.0
  0
LINE
  5
267
330
1F
100
AcDbEntity
  8
0
  6
Continuous
 62
     7
370
    25
100
AcDbLine
 10
1.3787143518
 20
0.0965884396
 30
0.0
 11
1.375
 21
0.1002956996
 31
0.0
  0
LINE
  5
268
330
1F
100
AcDbEntity
  8
0
  6
Continuous
 62
     7
370
    25
100
AcDbLine
 10
1.375
 20
0.0128374476
 30
0.0
 11
1.3864408561
 21
0.031495427
 31
0.0
  0
LINE
  5
269
330
1F
100
AcDbEntity
  8
0
  6
Continuous
 62
     7
370
    25
100
AcDbLine
 10
1.3857522065
 20
0.0303723632
 30
0.0
 11
1.375
 21
0.0493183326
 31
0.0
  0
LINE
  5
26A
330
1F
100
AcDbEntity
  8
0
  6
Continuous
 62
     7
370
    25
100
AcDbLine
 10
1.5151299306
 20
0.1240848566
 30
0.0
 11
1.375
 21
0.2639472405
 31
0.0
  0
LINE
  5
26B
330
1F
100
AcDbEntity
  8
0
  6
Continuous
 62
     7
370
    25
100
AcDbLine
 10
1.375
 20
-0.1470896383
 30
0.0
 11
1.5204617158
 21
0.0410999289
 31
0.0
  0
LINE
  5
26C
330
1F
100
AcDbEntity
  8
0
  6
Continuous
 62
     7
370
    25
100
AcDbLine
 10
1.3949657854
 20
0.0262680395
 30
0.0
 11
1.375
 21
-0.0062925669
 31
0.0
  0
LINE
  5
26D
330
1F
100
AcDbEntity
  8
0
  6
Continuous
 62
     7
370
    25
100
AcDbLine
 10
1.375
 20
0.1144243411
 30
0.0
 11
1.3857786596
 21
0.1036662609
 31
0.0
  0
LINE
  5
26E
330
1F
100
AcDbEntity
  8
0
  6
Continuous
 62
     7
370
    25
100
AcDbLine
 10
-1.375
 20
18.4375
 30
0.0
 11
-1.4497
 21
18.4375
 31
0.0
  0
LINE
  5
26F
330
1F
100
AcDbEntity
  8
0
  6
Continuous
 62
     7
370
    25
100
AcDbLine
 10
-1.375
 20
20.9375
 30
0.0
 11
-1.4497
 21
20.9375
 31
0.0
  0
LINE
  5
270
330
1F
100
AcDbEntity
  8
0
  6
Continuous
 62
     7
370
    25
100
AcDbLine
 10
-1.375
 20
20.0625
 30
0.0
 11
-1.4497
 21
20.0625
 31
0.0
  0
LINE
  5
271
330
1F
100
AcDbEntity
  8
0
  6
Continuous
 62
     7
370
    25
100
AcDbLine
 10
-1.4497
 20
-17.0625
 30
0.0
 11
-1.375
 21
-17.0625
 31
0.0
  0
LINE
  5
272
330
1F
100
AcDbEntity
  8
0
  6
Continuous
 62
     7
370
    25
100
AcDbLine
 10
-1.375
 20
-20.375
 30
0.0
 11
-1.4497
 21
-20.375
 31
0.0
  0
LINE
  5
273
330
1F
100
AcDbEntity
  8
0
  6
Continuous
 62
     7
370
    25
100
AcDbLine
 10
-1.375
 20
-19.5
 30
0.0
 11
-1.4497
 21
-19.5
 31
0.0
  0
LINE
  5
274
330
1F
100
AcDbEntity
  8
0
  6
Continuous
 62
     7
370
    25
100
AcDbLine
 10
-1.4497
 20
16.9375
 30
0.0
 11
-1.375
 21
16.9375
 31
0.0
  0
LINE
  5
275
330
1F
100
AcDbEntity
  8
0
  6
Continuous
 62
     7
370
    25
100
AcDbLine
 10
-1.375
 20
0.5294917696
 30
0.0
 11
-1.4497
 21
0.5294917696
 31
0.0
  0
LINE
  5
276
330
1F
100
AcDbEntity
  8
0
  6
Continuous
 62
     7
370
    25
100
AcDbLine
 10
-1.375
 20
-15.5625
 30
0.0
 11
-1.4497
 21
-15.5625
 31
0.0
  0
LINE
  5
277
330
1F
100
AcDbEntity
  8
0
  6
Continuous
 62
     7
370
    25
100
AcDbLine
 10
-1.375
 20
0.1850082304
 30
0.0
 11
-1.4497
 21
0.1850082304
 31
0.0
  0
LINE
  5
278
330
1F
100
AcDbEntity
  8
0
  6
Continuous
 62
     7
370
    25
100
AcDbLine
 10
-1.375
 20
0.35725
 30
0.0
 11
-1.4497
 21
0.35725
 31
0.0
  0
LINE
  5
279
330
1F
100
AcDbEntity
  8
0
  6
Continuous
 62
     7
370
    25
100
AcDbLine
 10
-1.4497
 20
-15.59375
 30
0.0
 11
-1.375
 21
-15.59375
 31
0.0
  0
LINE
  5
27A
330
1F
100
AcDbEntity
  8
0
  6
Continuous
 62
     7
370
    25
100
AcDbLine
 10
-1.375
 20
-17.03125
 30
0.0
 11
-1.4497
 21
-17.03125
 31
0.0
  0
LINE
  5
27B
330
1F
100
AcDbEntity
  8
0
  6
Continuous
 62
     7
370
    25
100
AcDbLine
 10
-1.4497
 20
18.40625
 30
0.0
 11
-1.375
 21
18.40625
 31
0.0
  0
LINE
  5
27C
330
1F
100
AcDbEntity
  8
0
  6
Continuous
 62
     7
370
    25
100
AcDbLine
 10
-1.375
 20
16.96875
 30
0.0
 11
-1.4497
 21
16.96875
 31
0.0
  0
LINE
  5
27D
330
1F
100
AcDbEntity
  8
0
  6
Continuous
 62
     7
370
    25
100
AcDbLine
 10
-1.4497
 20
-20.375
 30
0.0
 11
-1.4497
 21
20.9375
 31
0.0
  0
LINE
  5
27E
330
1F
100
AcDbEntity
  8
0
  6
Continuous
 62
     7
370
    25
100
AcDbLine
 10
1.8107553471
 20
-0.4313013907
 30
0.0
 11
1.8111136788
 21
-0.6188010483
 31
0.0
  0
LINE
  5
27F
330
1F
100
AcDbEntity
  8
0
  6
Continuous
 62
     7
370
    25
100
AcDbLine
 10
3.0611113961
 20
-0.6164121704
 30
0.0
 11
1.5611141354
 21
-0.6192788239
 31
0.0
  0
LINE
  5
280
330
1F
100
AcDbEntity
  8
0
  6
Continuous
 62
     7
370
    25
100
AcDbLine
 10
1.5612288015
 20
-0.6792787143
 30
0.0
 11
1.5607558037
 21
-0.4317791663
 31
0.0
  0
LINE
  5
281
330
1F
100
AcDbEntity
  8
0
  6
Continuous
 62
     7
370
    25
100
AcDbLine
 10
2.0611132223
 20
-0.6183232727
 30
0.0
 11
2.0595652294
 21
0.1916752481
 31
0.0
  0
LINE
  5
282
330
1F
100
AcDbEntity
  8
0
  6
Continuous
 62
     7
370
    25
100
AcDbLine
 10
20.7511937575
 20
-0.6426046604
 30
0.0
 11
20.7495310985
 21
0.2273937508
 31
0.0
  0
LINE
  5
283
330
1F
100
AcDbEntity
  8
0
  6
Continuous
 62
     7
370
    25
100
AcDbLine
 10
21.8111918218
 20
-0.640578892
 30
0.0
 11
21.8095291628
 21
0.2294195193
 31
0.0
  0
LINE
  5
284
330
1F
100
AcDbEntity
  8
0
  6
Continuous
 62
     7
370
    25
100
AcDbLine
 10
2.0595652294
 20
0.1916752481
 30
0.0
 11
21.8095291628
 21
0.2294195193
 31
0.0
  0
LINE
  5
285
330
1F
100
AcDbEntity
  8
0
  6
Continuous
 62
     7
370
    25
100
AcDbLine
 10
21.8096438289
 20
0.1694196289
 30
0.0
 11
19.8086075914
 21
0.1655954368
 31
0.0
  0
LINE
  5
286
330
1F
100
AcDbEntity
  8
0
  6
Continuous
 62
     7
370
    25
100
AcDbLine
 10
19.8096474812
 20
0.1655974242
 30
0.0
 11
19.8095328151
 21
0.2255973146
 31
0.0
  0
LINE
  5
287
330
1F
100
AcDbEntity
  8
0
  6
Continuous
 62
     7
370
    25
100
AcDbLine
 10
21.8110771557
 20
-0.5805790015
 30
0.0
 11
19.8100409182
 21
-0.5844031935
 31
0.0
  0
LINE
  5
288
330
1F
100
AcDbEntity
  8
0
  6
Continuous
 62
     7
370
    25
100
AcDbLine
 10
19.8086075914
 20
0.1655954368
 30
0.0
 11
19.8100409182
 21
-0.5844031935
 31
0.0
  0
LINE
  5
289
330
1F
100
AcDbEntity
  8
0
  6
Continuous
 62
     7
370
    25
100
AcDbLine
 10
2.0608695567
 20
-0.4908235056
 30
0.0
 11
3.0608677306
 21
-0.4889124032
 31
0.0
  0
LINE
  5
28A
330
1F
100
AcDbEntity
  8
0
  6
Continuous
 62
     7
370
    25
100
AcDbLine
 10
19.8097048143
 20
0.135597479
 30
0.0
 11
2.0597372286
 21
0.1016754124
 31
0.0
  0
LINE
  5
28B
330
1F
100
AcDbEntity
  8
0
  6
Continuous
 62
     7
370
    25
100
AcDbLine
 10
19.8110234749
 20
-0.554401261
 30
0.0
 11
19.8097048143
 21
0.135597479
 31
0.0
  0
LINE
  5
28C
330
1F
100
AcDbEntity
  8
0
  6
Continuous
 62
     7
370
    25
100
AcDbLine
 10
19.8110234749
 20
-0.554401261
 30
0.0
 11
3.0610540631
 21
-0.5864122252
 31
0.0
  0
LINE
  5
28D
330
1F
100
AcDbEntity
  8
0
  6
Continuous
 62
     7
370
    25
100
AcDbLine
 10
3.0608677306
 20
-0.4889124032
 30
0.0
 11
3.0612260623
 21
-0.6764120608
 31
0.0
  0
LINE
  5
28E
330
1F
100
AcDbEntity
  8
0
  6
Continuous
 62
     7
370
    25
100
AcDbLine
 10
19.8111954741
 20
-0.6444010966
 30
0.0
 11
19.811080808
 21
-0.5844012062
 31
0.0
  0
LINE
  5
28F
330
1F
100
AcDbEntity
  8
0
  6
Continuous
 62
     7
370
    25
100
AcDbLine
 10
1.6861139071
 20
-0.6190399361
 30
0.0
 11
1.6862285732
 21
-0.6790398265
 31
0.0
  0
LINE
  5
290
330
1F
100
AcDbEntity
  8
0
  6
Continuous
 62
     7
370
    25
100
AcDbLine
 10
21.8111918218
 20
-0.640578892
 30
0.0
 11
1.5612288015
 21
-0.6792787143
 31
0.0
  0
LINE
  5
291
330
1F
100
AcDbEntity
  8
0
  6
Continuous
 62
     7
370
    25
100
AcDbLine
 10
0.575
 20
6.57
 30
0.0
 11
-0.575
 21
6.57
 31
0.0
  0
LINE
  5
292
330
1F
100
AcDbEntity
  8
0
  6
Continuous
 62
     7
370
    25
100
AcDbLine
 10
-0.655
 20
4.01
 30
0.0
 11
-0.655
 21
6.49
 31
0.0
  0
LINE
  5
293
330
1F
100
AcDbEntity
  8
0
  6
Continuous
 62
     7
370
    25
100
AcDbLine
 10
0.575
 20
3.93
 30
0.0
 11
-0.575
 21
3.93
 31
0.0
  0
LINE
  5
294
330
1F
100
AcDbEntity
  8
0
  6
Continuous
 62
     7
370
    25
100
AcDbLine
 10
0.655
 20
4.01
 30
0.0
 11
0.655
 21
6.49
 31
0.0
  0
LINE
  5
295
330
1F
100
AcDbEntity
  8
0
  6
Continuous
 62
     7
370
    25
100
AcDbLine
 10
-1.375
 20
21.25
 30
0.0
 11
-1.375
 21
-21.25
 31
0.0
  0
LINE
  5
296
330
1F
100
AcDbEntity
  8
0
  6
Continuous
 62
     7
370
    25
100
AcDbLine
 10
-1.375
 20
20.0
 30
0.0
 11
1.455980315
 21
20.0
 31
0.0
  0
LINE
  5
297
330
1F
100
AcDbEntity
  8
0
  6
Continuous
 62
     7
370
    25
100
AcDbLine
 10
-1.375
 20
-20.0
 30
0.0
 11
1.375
 21
-20.0
 31
0.0
  0
LINE
  5
298
330
1F
100
AcDbEntity
  8
0
  6
Continuous
 62
     7
370
    25
100
AcDbLine
 10
1.375
 20
-21.25
 30
0.0
 11
1.375
 21
21.25
 31
0.0
  0
LINE
  5
299
330
1F
100
AcDbEntity
  8
0
  6
Continuous
 62
     7
370
    25
100
AcDbLine
 10
-1.375
 20
-21.25
 30
0.0
 11
1.375
 21
-21.25
 31
0.0
  0
LINE
  5
29A
330
1F
100
AcDbEntity
  8
0
  6
Continuous
 62
     7
370
    25
100
AcDbLine
 10
-1.375
 20
21.25
 30
0.0
 11
1.375
 21
21.25
 31
0.0
  0
LINE
  5
29B
330
1F
100
AcDbEntity
  8
0
  6
Continuous
 62
     7
370
    25
100
AcDbLine
 10
19.5907497703
 20
0.242679229
 30
0.0
 11
19.5907832146
 21
0.225179261
 31
0.0
  0
LINE
  5
29C
330
1F
100
AcDbEntity
  8
0
  6
Continuous
 62
     7
370
    25
100
AcDbLine
 10
3.965778304
 20
0.212818255
 30
0.0
 11
3.9658117483
 21
0.1953182869
 31
0.0
  0
ARC
  5
29D
330
1F
100
AcDbEntity
  8
0
  6
Continuous
 62
     7
370
    25
100
AcDbCircle
 10
5.750178417
 20
-1.2814958523
 30
0.0
 40
0.1704724409448803
100
AcDbArc
 50
338.7617182334
 51
56.9872726207
  0
ARC
  5
29E
330
1F
100
AcDbEntity
  8
0
  6
Continuous
 62
     7
370
    25
100
AcDbCircle
 10
5.2481083125
 20
-1.1246996676
 30
0.0
 40
0.1704724409448793
100
AcDbArc
 50
88.3256228436
 51
166.551177231
  0
ARC
  5
29F
330
1F
100
AcDbEntity
  8
0
  6
Continuous
 62
     7
370
    25
100
AcDbCircle
 10
2.2348220385
 20
-12.5378624977
 30
0.0
 40
0.1704724409448781
100
AcDbArc
 50
265.9543716301
 51
338.7617182334
  0
ARC
  5
2A0
330
1F
100
AcDbEntity
  8
0
  6
Continuous
 62
     7
370
    25
100
AcDbCircle
 10
1.7327519341
 20
-12.3810663129
 30
0.0
 40
0.1704724409448866
100
AcDbArc
 50
166.551177231
 51
239.3585238343
  0
ARC
  5
2A1
330
1F
100
AcDbEntity
  8
0
  6
Continuous
 62
     7
370
    25
100
AcDbCircle
 10
21.7331741847
 20
-0.424477597
 30
0.0
 40
0.156249999999809
100
AcDbArc
 50
299.8893526443
 51
335.109498165
  0
ARC
  5
2A2
330
1F
100
AcDbEntity
  8
0
  6
Continuous
 62
     7
370
    25
100
AcDbCircle
 10
21.8640784516
 20
0.1382736021
 30
0.0
 40
0.1562500000000175
100
AcDbArc
 50
270.1094981649
 51
0.1094981649
  0
ARC
  5
2A3
330
1F
100
AcDbEntity
  8
0
  6
Continuous
 62
     7
370
    25
100
AcDbCircle
 10
21.8976017264
 20
-0.0700949627
 30
0.0
 40
0.1562499999986718
100
AcDbArc
 50
335.1094981649
 51
0.1094981651
  0
ARC
  5
2A4
330
1F
100
AcDbEntity
  8
0
  6
Continuous
 62
     7
370
    25
100
AcDbCircle
 10
21.8976017264
 20
-0.0700949627
 30
0.0
 40
0.1875000000000935
100
AcDbArc
 50
335.1094981649
 51
0.1094981649
  0
ARC
  5
2A5
330
1F
100
AcDbEntity
  8
0
  6
Continuous
 62
     7
370
    25
100
AcDbCircle
 10
21.8640784516
 20
0.1382736021
 30
0.0
 40
0.1249999999999133
100
AcDbArc
 50
270.1094981649
 51
0.109498165
  0
ARC
  5
2A6
330
1F
100
AcDbEntity
  8
0
  6
Continuous
 62
     7
370
    25
100
AcDbCircle
 10
21.7331741847
 20
-0.424477597
 30
0.0
 40
0.187500000000167
100
AcDbArc
 50
294.5589750531
 51
335.1094981649
  0
ARC
  5
2A7
330
1F
100
AcDbEntity
  8
0
  6
Continuous
 62
     7
370
    25
100
AcDbCircle
 10
21.8627645687
 20
0.8257723466
 30
0.0
 40
0.1249999999999307
100
AcDbArc
 50
0.1094981649
 51
90.109498165
  0
ARC
  5
2A8
330
1F
100
AcDbEntity
  8
0
  6
Continuous
 62
     7
370
    25
100
AcDbCircle
 10
1.7596201271
 20
-0.4114312231
 30
0.0
 40
0.0119807136000477
100
AcDbArc
 50
90.1094981647
 51
135.1094981647
  0
ARC
  5
2A9
330
1F
100
AcDbEntity
  8
0
  6
Continuous
 62
     7
370
    25
100
AcDbCircle
 10
1.7177617501
 20
-0.4194983758
 30
0.0
 40
0.0119807136000116
100
AcDbArc
 50
270.1094981649
 51
315.1094981649
  0
ARC
  5
2AA
330
1F
100
AcDbEntity
  8
0
  6
Continuous
 62
     7
370
    25
100
AcDbCircle
 10
1.5419861584
 20
-0.4198343016
 30
0.0
 40
0.0119807136000365
100
AcDbArc
 50
225.1094981651
 51
270.1094981651
  0
ARC
  5
2AB
330
1F
100
AcDbEntity
  8
0
  6
Continuous
 62
     7
370
    25
100
AcDbCircle
 10
1.5000972529
 20
-0.4119271987
 30
0.0
 40
0.0119807135999656
100
AcDbArc
 50
45.1094981648
 51
90.109498165
  0
ARC
  5
2AC
330
1F
100
AcDbEntity
  8
0
  6
Continuous
 62
     7
370
    25
100
AcDbCircle
 10
0.0
 20
5.7885
 30
0.0
 40
0.1070000000000021
100
AcDbArc
 50
360.0
 51
180.0
  0
ARC
  5
2AD
330
1F
100
AcDbEntity
  8
0
  6
Continuous
 62
     7
370
    25
100
AcDbCircle
 10
-0.56
 20
4.026
 30
0.0
 40
0.0799999999999734
100
AcDbArc
 50
180.0
 51
270.0
  0
ARC
  5
2AE
330
1F
100
AcDbEntity
  8
0
  6
Continuous
 62
     7
370
    25
100
AcDbCircle
 10
-0.56
 20
6.474
 30
0.0
 40
0.0800000000000001
100
AcDbArc
 50
90.0
 51
180.0
  0
ARC
  5
2AF
330
1F
100
AcDbEntity
  8
0
  6
Continuous
 62
     7
370
    25
100
AcDbCircle
 10
0.56
 20
6.474
 30
0.0
 40
0.0800000000000001
100
AcDbArc
 50
360.0
 51
90.0
  0
ARC
  5
2B0
330
1F
100
AcDbEntity
  8
0
  6
Continuous
 62
     7
370
    25
100
AcDbCircle
 10
0.56
 20
4.026
 30
0.0
 40
0.0799999999999881
100
AcDbArc
 50
270.0
 51
0.0
  0
ARC
  5
2B1
330
1F
100
AcDbEntity
  8
0
  6
Continuous
 62
     7
370
    25
100
AcDbCircle
 10
0.0
 20
4.0885
 30
0.0
 40
0.1070000000000008
100
AcDbArc
 50
0.0
 51
180.0
  0
ARC
  5
2B2
330
1F
100
AcDbEntity
  8
0
  6
Continuous
 62
     7
370
    25
100
AcDbCircle
 10
1.425980315
 20
0.655
 30
0.0
 40
0.0299999999999994
100
AcDbArc
 50
270.0
 51
0.0
  0
ARC
  5
2B3
330
1F
100
AcDbEntity
  8
0
  6
Continuous
 62
     7
370
    25
100
AcDbCircle
 10
1.425980315
 20
20.97
 30
0.0
 40
0.0299999999999359
100
AcDbArc
 50
359.9999999999
 51
90.0000000001
  0
ARC
  5
2B4
330
1F
100
AcDbEntity
  8
0
  6
Continuous
 62
     7
370
    25
100
AcDbCircle
 10
1.5891103274
 20
0.4292569094
 30
0.0
 40
0.0299999999999994
100
AcDbArc
 50
90.1094981649
 51
180.1094981649
  0
ARC
  5
2B5
330
1F
100
AcDbEntity
  8
0
  6
Continuous
 62
     7
370
    25
100
AcDbCircle
 10
21.9042595239
 20
0.3706008165
 30
0.0
 40
0.0300000000000269
100
AcDbArc
 50
270.109498165
 51
0.1094981649
  0
ARC
  5
2B6
330
1F
100
AcDbEntity
  8
0
  6
Continuous
 62
     7
370
    25
100
AcDbCircle
 10
1.5892966222
 20
0.3317767725
 30
0.0
 40
0.0299999999999994
100
AcDbArc
 50
180.1094981649
 51
270.1094981649
  0
ARC
  5
2B7
330
1F
100
AcDbEntity
  8
0
  6
Continuous
 62
     7
370
    25
100
AcDbCircle
 10
21.904073229
 20
0.4680809535
 30
0.0
 40
0.0300000000000163
100
AcDbArc
 50
0.1094981649
 51
90.1094981649
  0
ARC
  5
2B8
330
1F
100
AcDbEntity
  8
0
  6
Continuous
 62
     7
370
    25
100
AcDbCircle
 10
1.4419447291
 20
19.8507564239
 30
0.0
 40
0.0745933466026292
100
AcDbArc
 50
280.8455029117
 51
352.9889583196
  0
ARC
  5
2B9
330
1F
100
AcDbEntity
  8
0
  6
Continuous
 62
     7
370
    25
100
AcDbCircle
 10
1.415980315
 20
19.8416515139
 30
0.0
 40
0.0999999999999833
100
AcDbArc
 50
293.5781784782
 51
0.0
  0
ARC
  5
2BA
330
1F
100
AcDbEntity
  8
0
  6
Continuous
 62
     7
370
    25
100
AcDbCircle
 10
1.415980315
 20
20.4083484861
 30
0.0
 40
0.0999999999999952
100
AcDbArc
 50
360.0
 51
66.4218215218
  0
ARC
  5
2BB
330
1F
100
AcDbEntity
  8
0
  6
Continuous
 62
     7
370
    25
100
AcDbCircle
 10
1.4419447291
 20
20.3992435761
 30
0.0
 40
0.074593346602637
100
AcDbArc
 50
7.0110416804
 51
79.1544970883
  0
ARC
  5
2BC
330
1F
100
AcDbEntity
  8
0
  6
Continuous
 62
     7
370
    25
100
AcDbCircle
 10
1.341345049
 20
0.059147652
 30
0.0
 40
0.0528987464000598
100
AcDbArc
 50
328.4838581399
 51
45.054748972
  0
ARC
  5
2BD
330
1F
100
AcDbEntity
  8
0
  6
Continuous
 62
     7
370
    25
100
AcDbCircle
 10
1.4706963199
 20
0.0795662476
 30
0.0
 40
0.0628987464000042
100
AcDbArc
 50
322.297657705
 51
45.054748972
  0
ARC
  5
2BE
330
1F
100
AcDbEntity
  8
0
  6
Continuous
 62
     7
370
    25
100
AcDbCircle
 10
1.341345049
 20
0.059147652
 30
0.0
 40
0.0628987464000355
100
AcDbArc
 50
328.48385814
 51
45.0547489719
  0
ARC
  5
2BF
330
1F
100
AcDbEntity
  8
0
  6
Continuous
 62
     7
370
    25
100
AcDbCircle
 10
-1.275
 20
20.9375
 30
0.0
 40
0.1747000000000035
100
AcDbArc
 50
124.9184431455
 51
180.0
  0
ARC
  5
2C0
330
1F
100
AcDbEntity
  8
0
  6
Continuous
 62
     7
370
    25
100
AcDbCircle
 10
0.575
 20
6.49
 30
0.0
 40
0.0800000000000196
100
AcDbArc
 50
0.0
 51
90.0
  0
ARC
  5
2C1
330
1F
100
AcDbEntity
  8
0
  6
Continuous
 62
     7
370
    25
100
AcDbCircle
 10
-0.575
 20
6.49
 30
0.0
 40
0.0800000000000178
100
AcDbArc
 50
90.0
 51
180.0
  0
ARC
  5
2C2
330
1F
100
AcDbEntity
  8
0
  6
Continuous
 62
     7
370
    25
100
AcDbCircle
 10
-0.575
 20
4.01
 30
0.0
 40
0.0799999999999614
100
AcDbArc
 50
180.0
 51
270.0
  0
ARC
  5
2C3
330
1F
100
AcDbEntity
  8
0
  6
Continuous
 62
     7
370
    25
100
AcDbCircle
 10
0.575
 20
4.01
 30
0.0
 40
0.0799999999999721
100
AcDbArc
 50
270.0
 51
0.0
  0
ENDSEC
  0
SECTION
  2
OBJECTS
  0
DICTIONARY
  5
C
330
0
100
AcDbDictionary
281
     1
  3
ACAD_GROUP
350
D
  3
ACAD_LAYOUT
350
1A
  3
ACAD_MLINESTYLE
350
17
  3
ACAD_PLOTSETTINGS
350
19
  3
ACAD_PLOTSTYLENAME
350
E
  3
ACAD_SCALELIST
350
47
  3
DWGPROPS
350
2C4
  0
DICTIONARY
  5
D
102
{ACAD_REACTORS
330
C
102
}
330
C
100
AcDbDictionary
281
     1
  0
DICTIONARY
  5
1A
102
{ACAD_REACTORS
330
C
102
}
330
C
100
AcDbDictionary
281
     1
  3
Layout1
350
1E
  3
Layout2
350
26
  3
Model
350
22
  0
DICTIONARY
  5
17
102
{ACAD_REACTORS
330
C
102
}
330
C
100
AcDbDictionary
281
     1
  3
Standard
350
18
  0
DICTIONARY
  5
19
102
{ACAD_REACTORS
330
C
102
}
330
C
100
AcDbDictionary
281
     1
  0
ACDBDICTIONARYWDFLT
  5
E
102
{ACAD_REACTORS
330
C
102
}
330
C
100
AcDbDictionary
281
     1
  3
Normal
350
F
100
AcDbDictionaryWithDefault
340
F
  0
DICTIONARY
  5
47
102
{ACAD_REACTORS
330
C
102
}
330
C
100
AcDbDictionary
281
     1
  3
A0
350
48
  3
A1
350
49
  3
A2
350
4A
  3
A3
350
4B
  3
A4
350
4C
  3
A5
350
4D
  3
A6
350
4E
  3
A7
350
4F
  3
A8
350
50
  3
A9
350
51
  3
B1
350
52
  3
B2
350
53
  3
B3
350
54
  3
B4
350
55
  3
B5
350
56
  3
B6
350
57
  3
B7
350
58
  0
XRECORD
  5
2C4
102
{ACAD_REACTORS
330
C
102
}
330
C
100
AcDbXrecord
280
     1
  1
DWGPROPS COOKIE
  2

  3

  4

  6

  7

  8
rmcneal
  9

300
=
301
=
302
=
303
=
304
=
305
=
306
=
307
=
308
=
309
=
 40
0.0
 41
2460900.774068484
 42
2460900.774310996
  1

 90
        0
  0
LAYOUT
  5
1E
102
{ACAD_REACTORS
330
1A
102
}
330
1A
100
AcDbPlotSettings
  1

  2
none_device
  4

  6

 40
0.0
 41
0.0
 42
0.0
 43
0.0
 44
0.0
 45
0.0
 46
0.0
 47
0.0
 48
0.0
 49
0.0
140
0.0
141
0.0
142
1.0
143
1.0
 70
   688
 72
     0
 73
     0
 74
     5
  7

 75
    16
147
1.0
148
0.0
149
0.0
100
AcDbLayout
  1
Layout1
 70
     1
 71
     1
 10
0.0
 20
0.0
 11
12.0
 21
9.0
 12
0.0
 22
0.0
 32
0.0
 14
1.0000000000E+20
 24
1.0000000000E+20
 34
1.0000000000E+20
 15
-1.0000000000E+20
 25
-1.0000000000E+20
 35
-1.0000000000E+20
146
0.0
 13
0.0
 23
0.0
 33
0.0
 16
1.0
 26
0.0
 36
0.0
 17
0.0
 27
1.0
 37
0.0
 76
     0
330
1B
  0
LAYOUT
  5
26
102
{ACAD_REACTORS
330
1A
102
}
330
1A
100
AcDbPlotSettings
  1

  2
none_device
  4

  6

 40
0.0
 41
0.0
 42
0.0
 43
0.0
 44
0.0
 45
0.0
 46
0.0
 47
0.0
 48
0.0
 49
0.0
140
0.0
141
0.0
142
1.0
143
1.0
 70
   688
 72
     0
 73
     0
 74
     5
  7

 75
    16
147
1.0
148
0.0
149
0.0
100
AcDbLayout
  1
Layout2
 70
     1
 71
     2
 10
0.0
 20
0.0
 11
0.0
 21
0.0
 12
0.0
 22
0.0
 32
0.0
 14
0.0
 24
0.0
 34
0.0
 15
0.0
 25
0.0
 35
0.0
146
0.0
 13
0.0
 23
0.0
 33
0.0
 16
1.0
 26
0.0
 36
0.0
 17
0.0
 27
1.0
 37
0.0
 76
     0
330
23
  0
LAYOUT
  5
22
102
{ACAD_REACTORS
330
1A
102
}
330
1A
100
AcDbPlotSettings
  1

  2
none_device
  4
ANSI_A_(11.00_x_8.50_Inches)
  6

 40
6.35
 41
19.05
 42
6.35000508
 43
19.05000254
 44
279.4
 45
215.9
 46
81.4602162787
 47
88.89999873
 48
0.0
 49
0.0
140
0.0
141
0.0
142
0.198
143
1.0
 70
  1696
 72
     0
 73
     0
 74
     0
  7

 75
     0
147
0.5913241897
148
-39.4088153714
149
0.0
100
AcDbLayout
  1
Model
 70
     1
 71
     0
 10
0.0
 20
0.0
 11
12.0
 21
9.0
 12
0.0
 22
0.0
 32
0.0
 14
-1.4497
 24
-21.25
 34
0.0
 15
22.0851017264
 25
21.25
 35
0.0
146
0.0
 13
0.0
 23
0.0
 33
0.0
 16
1.0
 26
0.0
 36
0.0
 17
0.0
 27
1.0
 37
0.0
 76
     0
330
1F
331
29
  0
MLINESTYLE
  5
18
102
{ACAD_REACTORS
330
17
102
}
330
17
100
AcDbMlineStyle
  2
Standard
 70
     0
  3

 62
   256
 51
90.0
 52
90.0
 71
     2
 49
0.5
 62
   256
  6
BYLAYER
 49
-0.5
 62
   256
  6
BYLAYER
  0
ACDBPLACEHOLDER
  5
F
102
{ACAD_REACTORS
330
E
102
}
330
E
  0
SCALE
  5
48
102
{ACAD_REACTORS
330
47
102
}
330
47
100
AcDbScale
 70
     0
300
1:1
140
1.0
141
1.0
290
     1
  0
SCALE
  5
49
102
{ACAD_REACTORS
330
47
102
}
330
47
100
AcDbScale
 70
     0
300
1/128" = 1'-0"
140
0.0078125
141
12.0
290
     0
  0
SCALE
  5
4A
102
{ACAD_REACTORS
330
47
102
}
330
47
100
AcDbScale
 70
     0
300
1/64" = 1'-0"
140
0.015625
141
12.0
290
     0
  0
SCALE
  5
4B
102
{ACAD_REACTORS
330
47
102
}
330
47
100
AcDbScale
 70
     0
300
1/32" = 1'-0"
140
0.03125
141
12.0
290
     0
  0
SCALE
  5
4C
102
{ACAD_REACTORS
330
47
102
}
330
47
100
AcDbScale
 70
     0
300
1/16" = 1'-0"
140
0.0625
141
12.0
290
     0
  0
SCALE
  5
4D
102
{ACAD_REACTORS
330
47
102
}
330
47
100
AcDbScale
 70
     0
300
3/32" = 1'-0"
140
0.09375
141
12.0
290
     0
  0
SCALE
  5
4E
102
{ACAD_REACTORS
330
47
102
}
330
47
100
AcDbScale
 70
     0
300
1/8" = 1'-0"
140
0.125
141
12.0
290
     0
  0
SCALE
  5
4F
102
{ACAD_REACTORS
330
47
102
}
330
47
100
AcDbScale
 70
     0
300
3/16" = 1'-0"
140
0.1875
141
12.0
290
     0
  0
SCALE
  5
50
102
{ACAD_REACTORS
330
47
102
}
330
47
100
AcDbScale
 70
     0
300
1/4" = 1'-0"
140
0.25
141
12.0
290
     0
  0
SCALE
  5
51
102
{ACAD_REACTORS
330
47
102
}
330
47
100
AcDbScale
 70
     0
300
3/8" = 1'-0"
140
0.375
141
12.0
290
     0
  0
SCALE
  5
52
102
{ACAD_REACTORS
330
47
102
}
330
47
100
AcDbScale
 70
     0
300
1/2" = 1'-0"
140
0.5
141
12.0
290
     0
  0
SCALE
  5
53
102
{ACAD_REACTORS
330
47
102
}
330
47
100
AcDbScale
 70
     0
300
3/4" = 1'-0"
140
0.75
141
12.0
290
     0
  0
SCALE
  5
54
102
{ACAD_REACTORS
330
47
102
}
330
47
100
AcDbScale
 70
     0
300
1" = 1'-0"
140
1.0
141
12.0
290
     0
  0
SCALE
  5
55
102
{ACAD_REACTORS
330
47
102
}
330
47
100
AcDbScale
 70
     0
300
1-1/2" = 1'-0"
140
1.5
141
12.0
290
     0
  0
SCALE
  5
56
102
{ACAD_REACTORS
330
47
102
}
330
47
100
AcDbScale
 70
     0
300
3" = 1'-0"
140
3.0
141
12.0
290
     0
  0
SCALE
  5
57
102
{ACAD_REACTORS
330
47
102
}
330
47
100
AcDbScale
 70
     0
300
6" = 1'-0"
140
6.0
141
12.0
290
     0
  0
SCALE
  5
58
102
{ACAD_REACTORS
330
47
102
}
330
47
100
AcDbScale
 70
     0
300
1'-0" = 1'-0"
140
12.0
141
12.0
290
     0
  0
ENDSEC
  0
EOF
