  0
SECTION
  2
HEADER
  9
$ACADVER
  1
AC1015
  9
$ACADMAINTVER
 70
     6
  9
$DWGCODEPAGE
  3
ANSI_1252
  9
$INSBASE
 10
0.0
 20
0.0
 30
0.0
  9
$EXTMIN
 10
-22.0851017264
 20
-21.25
 30
0.0
  9
$EXTMAX
 10
1.4497
 20
21.25
 30
0.0
  9
$LIMMIN
 10
0.0
 20
0.0
  9
$LIMMAX
 10
12.0
 20
9.0
  9
$ORTHOMODE
 70
     0
  9
$REGENMODE
 70
     1
  9
$FILLMODE
 70
     1
  9
$QTEXTMODE
 70
     0
  9
$MIRRTEXT
 70
     1
  9
$LTSCALE
 40
1.0
  9
$ATTMODE
 70
     1
  9
$TEXTSIZE
 40
0.1388888889
  9
$TRACEWID
 40
0.05
  9
$TEXTSTYLE
  7
Standard
  9
$CLAYER
  8
0
  9
$CELTYPE
  6
ByLayer
  9
$CECOLOR
 62
   256
  9
$CELTSCALE
 40
1.0
  9
$DISPSILH
 70
     0
  9
$DIMSCALE
 40
1.0
  9
$DIMASZ
 40
0.075
  9
$DIMEXO
 40
0.0
  9
$DIMDLI
 40
0.38
  9
$DIMRND
 40
0.0
  9
$DIMDLE
 40
0.0
  9
$DIMEXE
 40
0.05
  9
$DIMTP
 40
0.0
  9
$DIMTM
 40
0.0
  9
$DIMTXT
 40
0.1388888889
  9
$DIMCEN
 40
0.09
  9
$DIMTSZ
 40
0.0
  9
$DIMTOL
 70
     0
  9
$DIMLIM
 70
     0
  9
$DIMTIH
 70
     1
  9
$DIMTOH
 70
     1
  9
$DIMSE1
 70
     0
  9
$DIMSE2
 70
     0
  9
$DIMTAD
 70
     0
  9
$DIMZIN
 70
     1
  9
$DIMBLK
  1

  9
$DIMASO
 70
     1
  9
$DIMSHO
 70
     1
  9
$DIMPOST
  1

  9
$DIMAPOST
  1

  9
$DIMALT
 70
     0
  9
$DIMALTD
 70
     2
  9
$DIMALTF
 40
25.4
  9
$DIMLFAC
 40
1.0
  9
$DIMTOFL
 70
     0
  9
$DIMTVP
 40
0.0
  9
$DIMTIX
 70
     0
  9
$DIMSOXD
 70
     0
  9
$DIMSAH
 70
     0
  9
$DIMBLK1
  1

  9
$DIMBLK2
  1

  9
$DIMSTYLE
  2
Standard
  9
$DIMCLRD
 70
     0
  9
$DIMCLRE
 70
     0
  9
$DIMCLRT
 70
     0
  9
$DIMTFAC
 40
1.0
  9
$DIMGAP
 40
0.08
  9
$DIMJUST
 70
     0
  9
$DIMSD1
 70
     0
  9
$DIMSD2
 70
     0
  9
$DIMTOLJ
 70
     1
  9
$DIMTZIN
 70
     1
  9
$DIMALTZ
 70
     0
  9
$DIMALTTZ
 70
     0
  9
$DIMUPT
 70
     0
  9
$DIMDEC
 70
     3
  9
$DIMTDEC
 70
     3
  9
$DIMALTU
 70
     2
  9
$DIMALTTD
 70
     2
  9
$DIMTXSTY
  7
Standard
  9
$DIMAUNIT
 70
     0
  9
$DIMADEC
 70
     1
  9
$DIMALTRND
 40
0.0
  9
$DIMAZIN
 70
     0
  9
$DIMDSEP
 70
    46
  9
$DIMATFIT
 70
     3
  9
$DIMFRAC
 70
     0
  9
$DIMLDRBLK
  1

  9
$DIMLUNIT
 70
     2
  9
$DIMLWD
 70
    -2
  9
$DIMLWE
 70
    -2
  9
$DIMTMOVE
 70
     0
  9
$LUNITS
 70
     2
  9
$LUPREC
 70
     6
  9
$SKETCHINC
 40
0.1
  9
$FILLETRAD
 40
0.0
  9
$AUNITS
 70
     0
  9
$AUPREC
 70
     1
  9
$MENU
  1
.
  9
$ELEVATION
 40
0.0
  9
$PELEVATION
 40
0.0
  9
$THICKNESS
 40
0.0
  9
$LIMCHECK
 70
     0
  9
$CHAMFERA
 40
0.0
  9
$CHAMFERB
 40
0.0
  9
$CHAMFERC
 40
0.0
  9
$CHAMFERD
 40
0.0
  9
$SKPOLY
 70
     0
  9
$TDCREATE
 40
2460900.565719526
  9
$TDUCREATE
 40
2460900.774052859
  9
$TDUPDATE
 40
2460900.565977072
  9
$TDUUPDATE
 40
2460900.774310405
  9
$TDINDWG
 40
0.0000000116
  9
$TDUSRTIMER
 40
0.0000000116
  9
$USRTIMER
 70
     1
  9
$ANGBASE
 50
0.0
  9
$ANGDIR
 70
     0
  9
$PDMODE
 70
     0
  9
$PDSIZE
 40
-1.0
  9
$PLINEWID
 40
0.0
  9
$SPLFRAME
 70
     0
  9
$SPLINETYPE
 70
     6
  9
$SPLINESEGS
 70
     8
  9
$HANDSEED
  5
28C
  9
$SURFTAB1
 70
     6
  9
$SURFTAB2
 70
     6
  9
$SURFTYPE
 70
     6
  9
$SURFU
 70
     6
  9
$SURFV
 70
     6
  9
$UCSBASE
  2

  9
$UCSNAME
  2

  9
$UCSORG
 10
0.0
 20
0.0
 30
0.0
  9
$UCSXDIR
 10
1.0
 20
0.0
 30
0.0
  9
$UCSYDIR
 10
0.0
 20
1.0
 30
0.0
  9
$UCSORTHOREF
  2

  9
$UCSORTHOVIEW
 70
     0
  9
$UCSORGTOP
 10
0.0
 20
0.0
 30
0.0
  9
$UCSORGBOTTOM
 10
0.0
 20
0.0
 30
0.0
  9
$UCSORGLEFT
 10
0.0
 20
0.0
 30
0.0
  9
$UCSORGRIGHT
 10
0.0
 20
0.0
 30
0.0
  9
$UCSORGFRONT
 10
0.0
 20
0.0
 30
0.0
  9
$UCSORGBACK
 10
0.0
 20
0.0
 30
0.0
  9
$PUCSBASE
  2

  9
$PUCSNAME
  2

  9
$PUCSORG
 10
0.0
 20
0.0
 30
0.0
  9
$PUCSXDIR
 10
1.0
 20
0.0
 30
0.0
  9
$PUCSYDIR
 10
0.0
 20
1.0
 30
0.0
  9
$PUCSORTHOREF
  2

  9
$PUCSORTHOVIEW
 70
     0
  9
$PUCSORGTOP
 10
0.0
 20
0.0
 30
0.0
  9
$PUCSORGBOTTOM
 10
0.0
 20
0.0
 30
0.0
  9
$PUCSORGLEFT
 10
0.0
 20
0.0
 30
0.0
  9
$PUCSORGRIGHT
 10
0.0
 20
0.0
 30
0.0
  9
$PUCSORGFRONT
 10
0.0
 20
0.0
 30
0.0
  9
$PUCSORGBACK
 10
0.0
 20
0.0
 30
0.0
  9
$USERI1
 70
     0
  9
$USERI2
 70
     0
  9
$USERI3
 70
     0
  9
$USERI4
 70
     0
  9
$USERI5
 70
     0
  9
$USERR1
 40
0.0
  9
$USERR2
 40
0.0
  9
$USERR3
 40
0.0
  9
$USERR4
 40
0.0
  9
$USERR5
 40
0.0
  9
$WORLDVIEW
 70
     1
  9
$SHADEDGE
 70
     3
  9
$SHADEDIF
 70
    70
  9
$TILEMODE
 70
     1
  9
$MAXACTVP
 70
    64
  9
$PINSBASE
 10
0.0
 20
0.0
 30
0.0
  9
$PLIMCHECK
 70
     0
  9
$PEXTMIN
 10
1.0000000000E+20
 20
1.0000000000E+20
 30
1.0000000000E+20
  9
$PEXTMAX
 10
-1.0000000000E+20
 20
-1.0000000000E+20
 30
-1.0000000000E+20
  9
$PLIMMIN
 10
0.0
 20
0.0
  9
$PLIMMAX
 10
12.0
 20
9.0
  9
$UNITMODE
 70
     0
  9
$VISRETAIN
 70
     1
  9
$PLINEGEN
 70
     0
  9
$PSLTSCALE
 70
     1
  9
$TREEDEPTH
 70
  3020
  9
$CMLSTYLE
  2
Standard
  9
$CMLJUST
 70
     0
  9
$CMLSCALE
 40
1.0
  9
$PROXYGRAPHICS
 70
     1
  9
$MEASUREMENT
 70
     0
  9
$CELWEIGHT
370
    -1
  9
$ENDCAPS
280
     0
  9
$JOINSTYLE
280
     0
  9
$LWDISPLAY
290
     1
  9
$INSUNITS
 70
     1
  9
$HYPERLINKBASE
  1

  9
$STYLESHEET
  1

  9
$XEDIT
290
     1
  9
$CEPSNTYPE
380
     0
  9
$PSTYLEMODE
290
     1
  9
$FINGERPRINTGUID
  2
{1067ff5a-28d1-4290-9aeb-ea3bb9b761cb}
  9
$VERSIONGUID
  2
{FAEB1C32-E019-11D5-929B-00C0DF256EC4}
  9
$EXTNAMES
290
     1
  9
$PSVPSCALE
 40
0.0
  9
$OLESTARTUP
290
     0
  0
ENDSEC
  0
SECTION
  2
CLASSES
  0
CLASS
  1
ACDBDICTIONARYWDFLT
  2
AcDbDictionaryWithDefault
  3
ObjectDBX Classes
 90
        0
280
     0
281
     0
  0
CLASS
  1
VISUALSTYLE
  2
AcDbVisualStyle
  3
ObjectDBX Classes
 90
     4095
280
     0
281
     0
  0
CLASS
  1
MATERIAL
  2
AcDbMaterial
  3
ObjectDBX Classes
 90
     1153
280
     0
281
     0
  0
CLASS
  1
SCALE
  2
AcDbScale
  3
ObjectDBX Classes
 90
     1153
280
     0
281
     0
  0
CLASS
  1
TABLESTYLE
  2
AcDbTableStyle
  3
ObjectDBX Classes
 90
     4095
280
     0
281
     0
  0
CLASS
  1
MLEADERSTYLE
  2
AcDbMLeaderStyle
  3
ACDB_MLEADERSTYLE_CLASS
 90
     4095
280
     0
281
     0
  0
CLASS
  1
SUN
  2
AcDbSun
  3
SCENEOE
 90
     1153
280
     0
281
     0
  0
CLASS
  1
ACDBPLACEHOLDER
  2
AcDbPlaceHolder
  3
ObjectDBX Classes
 90
        0
280
     0
281
     0
  0
CLASS
  1
LAYOUT
  2
AcDbLayout
  3
ObjectDBX Classes
 90
        0
280
     0
281
     0
  0
ENDSEC
  0
SECTION
  2
TABLES
  0
TABLE
  2
VPORT
  5
8
330
0
100
AcDbSymbolTable
 70
     1
  0
VPORT
  5
29
330
8
100
AcDbSymbolTableRecord
100
AcDbViewportTableRecord
  2
*Active
 70
     0
 10
0.0
 20
0.0
 11
1.0
 21
1.0
 12
-10.3177008632
 22
0.0
 13
0.0
 23
0.0
 14
0.5
 24
0.5
 15
0.5
 25
0.5
 16
0.0
 26
0.0
 36
1.0
 17
0.0
 27
0.0
 37
0.0
 40
43.35
 41
0.5537600406
 42
50.0
 43
0.0
 44
0.0
 50
0.0
 51
0.0
 71
     0
 72
   100
 73
     1
 74
     3
 75
     0
 76
     0
 77
     0
 78
     0
281
     0
 65
     1
110
0.0
120
0.0
130
0.0
111
1.0
121
0.0
131
0.0
112
0.0
122
1.0
132
0.0
 79
     0
146
0.0
  0
ENDTAB
  0
TABLE
  2
LTYPE
  5
5
330
0
100
AcDbSymbolTable
 70
     6
  0
LTYPE
  5
14
330
5
100
AcDbSymbolTableRecord
100
AcDbLinetypeTableRecord
  2
ByBlock
 70
     0
  3

 72
    65
 73
     0
 40
0.0
  0
LTYPE
  5
15
330
5
100
AcDbSymbolTableRecord
100
AcDbLinetypeTableRecord
  2
ByLayer
 70
     0
  3

 72
    65
 73
     0
 40
0.0
  0
LTYPE
  5
16
330
5
100
AcDbSymbolTableRecord
100
AcDbLinetypeTableRecord
  2
Continuous
 70
     0
  3
Solid line
 72
    65
 73
     0
 40
0.0
  0
LTYPE
  5
5E
330
5
100
AcDbSymbolTableRecord
100
AcDbLinetypeTableRecord
  2
HIDDEN
 70
     0
  3
Hidden __ __ __ __ __ __ __ __ __ __ __ __ __ __
 72
    65
 73
     2
 40
0.075
 49
0.05
 74
     0
 49
-0.025
 74
     0
  0
LTYPE
  5
5F
330
5
100
AcDbSymbolTableRecord
100
AcDbLinetypeTableRecord
  2
PHANTOM
 70
     0
  3
Phantom ______  __  __  ______  __  __  ______
 72
    65
 73
     6
 40
0.5
 49
0.25
 74
     0
 49
-0.05
 74
     0
 49
0.05
 74
     0
 49
-0.05
 74
     0
 49
0.05
 74
     0
 49
-0.05
 74
     0
  0
LTYPE
  5
60
330
5
100
AcDbSymbolTableRecord
100
AcDbLinetypeTableRecord
  2
CENTER
 70
     0
  3
Center ____ _ ____ _ ____ _ ____ _ ____ _ ____
 72
    65
 73
     4
 40
0.4
 49
0.25
 74
     0
 49
-0.05
 74
     0
 49
0.05
 74
     0
 49
-0.05
 74
     0
  0
LTYPE
  5
61
330
5
100
AcDbSymbolTableRecord
100
AcDbLinetypeTableRecord
  2
CENTERX2
 70
     0
  3
Center (2x) ________  __  ________  __  _____
 72
    65
 73
     4
 40
0.8
 49
0.5
 74
     0
 49
-0.1
 74
     0
 49
0.1
 74
     0
 49
-0.1
 74
     0
  0
LTYPE
  5
62
330
5
100
AcDbSymbolTableRecord
100
AcDbLinetypeTableRecord
  2
DOT2
 70
     0
  3
Dot (.5x) ........................................
 72
    65
 73
     2
 40
0.025
 49
0.0
 74
     0
 49
-0.025
 74
     0
  0
ENDTAB
  0
TABLE
  2
LAYER
  5
2
330
0
100
AcDbSymbolTable
 70
     1
  0
LAYER
  5
10
330
2
100
AcDbSymbolTableRecord
100
AcDbLayerTableRecord
  2
0
 70
     0
 62
     7
  6
Continuous
370
    -3
390
F
  0
ENDTAB
  0
TABLE
  2
STYLE
  5
3
330
0
100
AcDbSymbolTable
 70
     1
  0
STYLE
  5
11
330
3
100
AcDbSymbolTableRecord
100
AcDbTextStyleTableRecord
  2
Standard
 70
     0
 40
0.0
 41
1.0
 50
0.0
 71
     0
 42
0.1388888889
  3
txt
  4

  0
ENDTAB
  0
TABLE
  2
VIEW
  5
6
330
0
100
AcDbSymbolTable
 70
     0
  0
ENDTAB
  0
TABLE
  2
UCS
  5
7
330
0
100
AcDbSymbolTable
 70
     0
  0
ENDTAB
  0
TABLE
  2
APPID
  5
9
330
0
100
AcDbSymbolTable
 70
     1
  0
APPID
  5
12
330
9
100
AcDbSymbolTableRecord
100
AcDbRegAppTableRecord
  2
ACAD
 70
     0
  0
ENDTAB
  0
TABLE
  2
DIMSTYLE
  5
A
330
0
100
AcDbSymbolTable
 70
     1
100
AcDbDimStyleTable
  0
DIMSTYLE
105
27
330
A
100
AcDbSymbolTableRecord
100
AcDbDimStyleTableRecord
  2
Standard
 70
     0
178
     0
340
11
  0
ENDTAB
  0
TABLE
  2
BLOCK_RECORD
  5
1
330
0
100
AcDbSymbolTable
 70
     1
  0
BLOCK_RECORD
  5
1F
330
1
100
AcDbSymbolTableRecord
100
AcDbBlockTableRecord
  2
*Model_Space
340
22
  0
BLOCK_RECORD
  5
1B
330
1
100
AcDbSymbolTableRecord
100
AcDbBlockTableRecord
  2
*Paper_Space
340
1E
  0
BLOCK_RECORD
  5
23
330
1
100
AcDbSymbolTableRecord
100
AcDbBlockTableRecord
  2
*Paper_Space0
340
26
  0
ENDTAB
  0
ENDSEC
  0
SECTION
  2
BLOCKS
  0
BLOCK
  5
20
330
1F
100
AcDbEntity
  8
0
100
AcDbBlockBegin
  2
*Model_Space
 70
     0
 10
0.0
 20
0.0
 30
0.0
  3
*Model_Space
  1

  0
ENDBLK
  5
21
330
1F
100
AcDbEntity
  8
0
100
AcDbBlockEnd
  0
BLOCK
  5
1C
330
1B
100
AcDbEntity
 67
     1
  8
0
100
AcDbBlockBegin
  2
*Paper_Space
 70
     0
 10
0.0
 20
0.0
 30
0.0
  3
*Paper_Space
  1

  0
ENDBLK
  5
1D
330
1B
100
AcDbEntity
 67
     1
  8
0
100
AcDbBlockEnd
  0
BLOCK
  5
24
330
23
100
AcDbEntity
  8
0
100
AcDbBlockBegin
  2
*Paper_Space0
 70
     0
 10
0.0
 20
0.0
 30
0.0
  3
*Paper_Space0
  1

  0
ENDBLK
  5
25
330
23
100
AcDbEntity
  8
0
100
AcDbBlockEnd
  0
ENDSEC
  0
SECTION
  2
ENTITIES
  0
LINE
  5
63
330
1F
100
AcDbEntity
  8
0
  6
Continuous
 62
     7
100
AcDbLine
 10
-0.09
 20
-21.065
 30
0.0
 11
-0.18
 21
-21.065
 31
0.0
  0
LINE
  5
64
330
1F
100
AcDbEntity
  8
0
  6
Continuous
 62
     7
100
AcDbLine
 10
-0.09
 20
-21.065
 30
0.0
 11
-0.09
 21
-20.44
 31
0.0
  0
LINE
  5
65
330
1F
100
AcDbEntity
  8
0
  6
Continuous
 62
     7
100
AcDbLine
 10
-0.09
 20
-20.44
 30
0.0
 11
-0.18
 21
-20.44
 31
0.0
  0
LINE
  5
66
330
1F
100
AcDbEntity
  8
0
  6
Continuous
 62
     7
100
AcDbLine
 10
-0.18
 20
-21.065
 30
0.0
 11
-0.18
 21
-20.44
 31
0.0
  0
LINE
  5
67
330
1F
100
AcDbEntity
  8
0
  6
Continuous
 62
     7
100
AcDbLine
 10
-0.09
 20
-21.065
 30
0.0
 11
-0.18
 21
-21.065
 31
0.0
  0
LINE
  5
68
330
1F
100
AcDbEntity
  8
0
  6
Continuous
 62
     7
100
AcDbLine
 10
-0.09
 20
-21.065
 30
0.0
 11
-0.09
 21
-20.44
 31
0.0
  0
LINE
  5
69
330
1F
100
AcDbEntity
  8
0
  6
Continuous
 62
     7
100
AcDbLine
 10
-0.09
 20
-20.44
 30
0.0
 11
-0.18
 21
-20.44
 31
0.0
  0
LINE
  5
6A
330
1F
100
AcDbEntity
  8
0
  6
Continuous
 62
     7
100
AcDbLine
 10
-0.18
 20
-21.065
 30
0.0
 11
-0.18
 21
-20.44
 31
0.0
  0
LINE
  5
6B
330
1F
100
AcDbEntity
  8
0
  6
Continuous
 62
     7
100
AcDbLine
 10
-6.1982957189
 20
0.0770845763
 30
0.0
 11
-3.1183013434
 21
0.0711983811
 31
0.0
  0
LINE
  5
6C
330
1F
100
AcDbEntity
  8
0
  6
Continuous
 62
     7
100
AcDbLine
 10
-6.1982957189
 20
0.0770845763
 30
0.0
 11
-6.1996096017
 21
-0.6104141682
 31
0.0
  0
LINE
  5
6D
330
1F
100
AcDbEntity
  8
0
  6
Continuous
 62
     7
100
AcDbLine
 10
-6.1996096017
 20
-0.6104141682
 30
0.0
 11
-3.1196152263
 21
-0.6163003634
 31
0.0
  0
LINE
  5
6E
330
1F
100
AcDbEntity
  8
0
  6
Continuous
 62
     7
100
AcDbLine
 10
-3.1183013434
 20
0.0711983811
 30
0.0
 11
-3.1196152263
 21
-0.6163003634
 31
0.0
  0
LINE
  5
6F
330
1F
100
AcDbEntity
  8
0
  6
CENTERX2
 62
     7
100
AcDbLine
 10
-6.1982957189
 20
0.0770845763
 30
0.0
 11
-3.1196152263
 21
-0.6163003634
 31
0.0
  0
LINE
  5
70
330
1F
100
AcDbEntity
  8
0
  6
CENTERX2
 62
     7
100
AcDbLine
 10
-6.1996096017
 20
-0.6104141682
 30
0.0
 11
-3.1183013434
 21
0.0711983811
 31
0.0
  0
LINE
  5
71
330
1F
100
AcDbEntity
  8
0
  6
Continuous
 62
     7
100
AcDbLine
 10
-4.6982984581
 20
0.0742179228
 30
0.0
 11
-4.9482980016
 21
0.0746956984
 31
0.0
  0
LINE
  5
72
330
1F
100
AcDbEntity
  8
0
  6
Continuous
 62
     7
100
AcDbLine
 10
-4.6982984581
 20
0.0742179228
 30
0.0
 11
-4.698202903
 21
0.1242178315
 31
0.0
  0
LINE
  5
73
330
1F
100
AcDbEntity
  8
0
  6
Continuous
 62
     7
100
AcDbLine
 10
-4.698202903
 20
0.1242178315
 30
0.0
 11
-4.9482024464
 21
0.1246956071
 31
0.0
  0
LINE
  5
74
330
1F
100
AcDbEntity
  8
0
  6
Continuous
 62
     7
100
AcDbLine
 10
-4.9482980016
 20
0.0746956984
 30
0.0
 11
-4.9482024464
 21
0.1246956071
 31
0.0
  0
LINE
  5
75
330
1F
100
AcDbEntity
  8
0
  6
Continuous
 62
     7
100
AcDbLine
 10
-20.263270034
 20
0.1039642308
 30
0.0
 11
-20.0132704905
 21
0.1034864552
 31
0.0
  0
LINE
  5
76
330
1F
100
AcDbEntity
  8
0
  6
Continuous
 62
     7
100
AcDbLine
 10
-20.263270034
 20
0.1039642308
 30
0.0
 11
-20.2631744788
 21
0.1539641394
 31
0.0
  0
LINE
  5
77
330
1F
100
AcDbEntity
  8
0
  6
Continuous
 62
     7
100
AcDbLine
 10
-20.2631744788
 20
0.1539641394
 30
0.0
 11
-20.0131749354
 21
0.1534863639
 31
0.0
  0
LINE
  5
78
330
1F
100
AcDbEntity
  8
0
  6
Continuous
 62
     7
100
AcDbLine
 10
-20.0132704905
 20
0.1034864552
 30
0.0
 11
-20.0131749354
 21
0.1534863639
 31
0.0
  0
LINE
  5
79
330
1F
100
AcDbEntity
  8
0
  6
Continuous
 62
     7
100
AcDbLine
 10
-6.1982957189
 20
0.0770845763
 30
0.0
 11
-3.1183013434
 21
0.0711983811
 31
0.0
  0
LINE
  5
7A
330
1F
100
AcDbEntity
  8
0
  6
Continuous
 62
     7
100
AcDbLine
 10
-6.1982957189
 20
0.0770845763
 30
0.0
 11
-6.1996096017
 21
-0.6104141682
 31
0.0
  0
LINE
  5
7B
330
1F
100
AcDbEntity
  8
0
  6
Continuous
 62
     7
100
AcDbLine
 10
-6.1996096017
 20
-0.6104141682
 30
0.0
 11
-3.1196152263
 21
-0.6163003634
 31
0.0
  0
LINE
  5
7C
330
1F
100
AcDbEntity
  8
0
  6
Continuous
 62
     7
100
AcDbLine
 10
-3.1183013434
 20
0.0711983811
 30
0.0
 11
-3.1196152263
 21
-0.6163003634
 31
0.0
  0
LINE
  5
7D
330
1F
100
AcDbEntity
  8
0
  6
CENTERX2
 62
     7
100
AcDbLine
 10
-6.1982957189
 20
0.0770845763
 30
0.0
 11
-3.1196152263
 21
-0.6163003634
 31
0.0
  0
LINE
  5
7E
330
1F
100
AcDbEntity
  8
0
  6
CENTERX2
 62
     7
100
AcDbLine
 10
-6.1996096017
 20
-0.6104141682
 30
0.0
 11
-3.1183013434
 21
0.0711983811
 31
0.0
  0
LINE
  5
7F
330
1F
100
AcDbEntity
  8
0
  6
Continuous
 62
     7
100
AcDbLine
 10
-4.6982984581
 20
0.0742179228
 30
0.0
 11
-4.9482980016
 21
0.0746956984
 31
0.0
  0
LINE
  5
80
330
1F
100
AcDbEntity
  8
0
  6
Continuous
 62
     7
100
AcDbLine
 10
-4.6982984581
 20
0.0742179228
 30
0.0
 11
-4.698202903
 21
0.1242178315
 31
0.0
  0
LINE
  5
81
330
1F
100
AcDbEntity
  8
0
  6
Continuous
 62
     7
100
AcDbLine
 10
-4.698202903
 20
0.1242178315
 30
0.0
 11
-4.9482024464
 21
0.1246956071
 31
0.0
  0
LINE
  5
82
330
1F
100
AcDbEntity
  8
0
  6
Continuous
 62
     7
100
AcDbLine
 10
-4.9482980016
 20
0.0746956984
 30
0.0
 11
-4.9482024464
 21
0.1246956071
 31
0.0
  0
LINE
  5
83
330
1F
100
AcDbEntity
  8
0
  6
Continuous
 62
     7
100
AcDbLine
 10
-20.263270034
 20
0.1039642308
 30
0.0
 11
-20.0132704905
 21
0.1034864552
 31
0.0
  0
LINE
  5
84
330
1F
100
AcDbEntity
  8
0
  6
Continuous
 62
     7
100
AcDbLine
 10
-20.263270034
 20
0.1039642308
 30
0.0
 11
-20.2631744788
 21
0.1539641394
 31
0.0
  0
LINE
  5
85
330
1F
100
AcDbEntity
  8
0
  6
Continuous
 62
     7
100
AcDbLine
 10
-20.2631744788
 20
0.1539641394
 30
0.0
 11
-20.0131749354
 21
0.1534863639
 31
0.0
  0
LINE
  5
86
330
1F
100
AcDbEntity
  8
0
  6
Continuous
 62
     7
100
AcDbLine
 10
-20.0132704905
 20
0.1034864552
 30
0.0
 11
-20.0131749354
 21
0.1534863639
 31
0.0
  0
POINT
  5
87
330
1F
100
AcDbEntity
  8
0
  6
Continuous
 62
     7
100
AcDbPoint
 10
0.3475
 20
-19.924375
 30
0.0
  0
POINT
  5
88
330
1F
100
AcDbEntity
  8
0
  6
Continuous
 62
     7
100
AcDbPoint
 10
0.3475
 20
-19.924375
 30
0.0
  0
POINT
  5
89
330
1F
100
AcDbEntity
  8
0
  6
Continuous
 62
     7
100
AcDbPoint
 10
-4.6589554726
 20
-0.2696078935
 30
0.0
  0
POINT
  5
8A
330
1F
100
AcDbEntity
  8
0
  6
Continuous
 62
     7
100
AcDbPoint
 10
-4.6589554726
 20
-0.2696078935
 30
0.0
  0
SPLINE
  5
92
330
1F
100
AcDbEntity
  8
0
  6
Continuous
 62
     7
370
    25
100
AcDbSpline
210
0.0
220
0.0
230
1.0
 70
     8
 71
     3
 72
     9
 73
     5
 74
     0
 42
0.00000001
 43
0.00000001
 40
0.0
 40
0.0
 40
0.0
 40
0.0
 40
0.5820723161785452
 40
1.0
 40
1.0
 40
1.0
 40
1.0
 10
-1.79173447095643
 20
-0.4216803249430925
 30
0.0
 10
-1.795137073178113
 20
-0.4196964876099598
 30
0.0
 10
-1.800982742396713
 20
-0.416288255886869
 30
0.0
 10
-1.806819977206749
 20
-0.4128735719715675
 30
0.0
 10
-1.80925951923083
 20
-0.4114464810318632
 30
0.0
  0
SPLINE
  5
96
330
1F
100
AcDbEntity
  8
0
  6
Continuous
 62
     7
370
    25
100
AcDbSpline
210
0.0
220
0.0
230
1.0
 70
     8
 71
     3
 72
     9
 73
     5
 74
     0
 42
0.00000001
 43
0.00000001
 40
0.0
 40
0.0
 40
0.0
 40
0.0
 40
0.5000650329613856
 40
1.0
 40
1.0
 40
1.0
 40
1.0
 10
-1.953054653999787
 20
-0.4090593879751612
 30
0.0
 10
-1.949805105463647
 20
-0.4110302620736542
 30
0.0
 10
-1.943306853592492
 20
-0.4149714976501982
 30
0.0
 10
-1.936771343849692
 20
-0.4189142705138621
 30
0.0
 10
-1.933504014001844
 20
-0.4208854005354985
 30
0.0
  0
SPLINE
  5
B8
330
1F
100
AcDbEntity
  8
0
  6
Continuous
 62
     7
370
    25
100
AcDbSpline
210
0.0
220
0.0
230
1.0
 70
     8
 71
     3
 72
    12
 73
     8
 74
     0
 42
0.00000001
 43
0.00000001
 40
0.0
 40
0.0
 40
0.0
 40
0.0
 40
0.2524733924426657
 40
0.502763141862471
 40
0.6678446490819371
 40
0.8332922058617133
 40
1.0
 40
1.0
 40
1.0
 40
1.0
 10
-22.01861269916455
 20
1.036202803867264
 30
0.0
 10
-22.01605552130867
 20
1.046051297997648
 30
0.0
 10
-22.0109632826348
 20
1.065663106607265
 30
0.0
 10
-21.97723287020976
 20
1.083882113727112
 30
0.0
 10
-21.93912300544685
 20
1.095292460324811
 30
0.0
 10
-21.90174455819779
 20
1.102633507121294
 30
0.0
 10
-21.87543111456343
 20
1.106460013764408
 30
0.0
 10
-21.86222447456096
 20
1.108380526199224
 30
0.0
  0
SPLINE
  5
BB
330
1F
100
AcDbEntity
  8
0
  6
Continuous
 62
     7
370
    25
100
AcDbSpline
210
0.0
220
0.0
230
1.0
 70
     8
 71
     3
 72
    15
 73
    11
 74
     0
 42
0.00000001
 43
0.00000001
 40
0.0
 40
0.0
 40
0.0
 40
0.0
 40
0.1253981707174916
 40
0.2502923579118254
 40
0.3745507810062034
 40
0.498773136577273
 40
0.6236964781712635
 40
0.7493563334568345
 40
0.8743194922208779
 40
1.0
 40
1.0
 40
1.0
 40
1.0
 10
-21.89529228872782
 20
1.13833508122581
 30
0.0
 10
-21.90438475608281
 20
1.137880041504676
 30
0.0
 10
-21.92253314756647
 20
1.136971790897074
 30
0.0
 10
-21.94913258420445
 20
1.129401847797616
 30
0.0
 10
-21.97449480770866
 20
1.117287602917823
 30
0.0
 10
-21.9980161447723
 20
1.10007667113526
 30
0.0
 10
-22.01901950541401
 20
1.077707393406692
 30
0.0
 10
-22.03614774397136
 20
1.04988382698011
 30
0.0
 10
-22.04888491969526
 20
1.01694766041182
 30
0.0
 10
-22.05085991953292
 20
0.99057015979771
 30
0.0
 10
-22.05185024570348
 20
0.9773436629272834
 30
0.0
  0
SPLINE
  5
D0
330
1F
100
AcDbEntity
  8
0
  6
Continuous
 62
     7
370
    25
100
AcDbSpline
210
0.0
220
0.0
230
1.0
 70
     8
 71
     3
 72
    15
 73
    11
 74
     0
 42
0.00000001
 43
0.00000001
 40
0.0
 40
0.0
 40
0.0
 40
0.0
 40
0.1275716541548363
 40
0.2533773592696085
 40
0.3792343912150806
 40
0.503939201880976
 40
0.6276776945580161
 40
0.7512814096094346
 40
0.8754145977272636
 40
1.0
 40
1.0
 40
1.0
 40
1.0
 10
-22.08315027801186
 20
0.9511937553190429
 30
0.0
 10
-22.08197267115644
 20
0.9665449951710896
 30
0.0
 10
-22.0796337588231
 20
0.9970349707145983
 30
0.0
 10
-22.06436329699178
 20
1.035440984779517
 30
0.0
 10
-22.04379828354001
 20
1.067814817926205
 30
0.0
 10
-22.01858746071005
 20
1.093843818929024
 30
0.0
 10
-21.99035399065971
 20
1.113861688333823
 30
0.0
 10
-21.95991296514342
 20
1.127949637328596
 30
0.0
 10
-21.92798753601868
 20
1.136751523089088
 30
0.0
 10
-21.90620390664832
 20
1.137806589081705
 30
0.0
 10
-21.89529228872782
 20
1.13833508122581
 30
0.0
  0
SPLINE
  5
D1
330
1F
100
AcDbEntity
  8
0
  6
Continuous
 62
     7
370
    25
100
AcDbSpline
210
0.0
220
0.0
230
1.0
 70
     8
 71
     3
 72
    12
 73
     8
 74
     0
 42
0.00000001
 43
0.00000001
 40
0.0
 40
0.0
 40
0.0
 40
0.0
 40
0.1925939926764372
 40
0.3725248529929355
 40
0.5393036300524389
 40
0.7741618697789873
 40
1.0
 40
1.0
 40
1.0
 40
1.0
 10
-21.86222447456096
 20
1.108380526199224
 30
0.0
 10
-21.87265028400222
 20
1.104535531869681
 30
0.0
 10
-21.89281640172721
 20
1.097098353131828
 30
0.0
 10
-21.92262086709343
 20
1.079103200875237
 30
0.0
 10
-21.95316681822916
 20
1.059178161782468
 30
0.0
 10
-21.98094712533786
 20
1.036655405318319
 30
0.0
 10
-21.98528828376948
 20
1.017488125116264
 30
0.0
 10
-21.98741636457745
 20
1.008092125918903
 30
0.0
  0
CIRCLE
  5
DB
330
1F
100
AcDbEntity
  8
0
  6
Continuous
 62
     7
370
    25
100
AcDbCircle
 10
0.0
 20
5.25
 30
0.0
 40
0.6274999999999997
  0
CIRCLE
  5
DC
330
1F
100
AcDbEntity
  8
0
  6
Continuous
 62
     7
370
    25
100
AcDbCircle
 10
0.0
 20
5.25
 30
0.0
 40
0.687499999999998
  0
SPLINE
  5
128
330
1F
100
AcDbEntity
  8
0
  6
Continuous
 62
     7
370
    25
100
AcDbSpline
210
0.0
220
0.0
230
1.0
 70
     8
 71
     3
 72
    10
 73
     6
 74
     0
 42
0.00000001
 43
0.00000001
 40
0.0
 40
0.0
 40
0.0
 40
0.0
 40
0.2639509683053269
 40
0.6380880069497189
 40
1.0
 40
1.0
 40
1.0
 40
1.0
 10
-1.833128325622176
 20
-0.4312586335854171
 30
0.0
 10
-1.826611211400496
 20
-0.4308117824657924
 30
0.0
 10
-1.810856420078932
 20
-0.4297315426691544
 30
0.0
 10
-1.794821738933873
 20
-0.4280220679463886
 30
0.0
 10
-1.792556668057775
 20
-0.4267455840557845
 30
0.0
 10
-1.791442942911936
 20
-0.4261179426772184
 30
0.0
  0
SPLINE
  5
129
330
1F
100
AcDbEntity
  8
0
  6
Continuous
 62
     7
370
    25
100
AcDbSpline
210
0.0
220
0.0
230
1.0
 70
     8
 71
     3
 72
    13
 73
     9
 74
     0
 42
0.00000001
 43
0.00000001
 40
0.0
 40
0.0
 40
0.0
 40
0.0
 40
0.0067519524036163
 40
0.2133896665901672
 40
0.4200273807764884
 40
0.6266650949630879
 40
0.8333028091496091
 40
1.0
 40
1.0
 40
1.0
 40
1.0
 10
-1.955017708867084
 20
-0.4101803054546834
 30
0.0
 10
-1.955083179663918
 20
-0.4101589072854969
 30
0.0
 10
-1.957152328063185
 20
-0.4094826364951554
 30
0.0
 10
-1.949609846828359
 20
-0.4081737924663085
 30
0.0
 10
-1.932153447444163
 20
-0.4062535748215702
 30
0.0
 10
-1.904373311301848
 20
-0.404355189521143
 30
0.0
 10
-1.874030334277619
 20
-0.4025801251882384
 30
0.0
 10
-1.855134965728143
 20
-0.4014521362294058
 30
0.0
 10
-1.846698023950709
 20
-0.4009484796245431
 30
0.0
  0
SPLINE
  5
12A
330
1F
100
AcDbEntity
  8
0
  6
Continuous
 62
     7
370
    25
100
AcDbSpline
210
0.0
220
0.0
230
1.0
 70
     8
 71
     3
 72
    11
 73
     7
 74
     0
 42
0.00000001
 43
0.00000001
 40
0.0
 40
0.0
 40
0.0
 40
0.0
 40
0.284114896345052
 40
0.6363035112058067
 40
0.988492126066949
 40
1.0
 40
1.0
 40
1.0
 40
1.0
 10
-1.909330988714828
 20
-0.4008287814004682
 30
0.0
 10
-1.916784843668249
 20
-0.4013343115987607
 30
0.0
 10
-1.933478491695492
 20
-0.4024664966560463
 30
0.0
 10
-1.949537942640378
 20
-0.4042689615741187
 30
0.0
 10
-1.957145224850643
 20
-0.4055763856958365
 30
0.0
 10
-1.955075725524241
 20
-0.4062526641756286
 30
0.0
 10
-1.955010243623572
 20
-0.4062740625881205
 30
0.0
  0
SPLINE
  5
12B
330
1F
100
AcDbEntity
  8
0
  6
Continuous
 62
     7
370
    25
100
AcDbSpline
210
0.0
220
0.0
230
1.0
 70
     8
 71
     3
 72
    13
 73
     9
 74
     0
 42
0.00000001
 43
0.00000001
 40
0.0
 40
0.0
 40
0.0
 40
0.0
 40
0.0510499168660156
 40
0.2527185057962574
 40
0.4543870947267379
 40
0.6560556836570821
 40
0.8577242725874428
 40
1.0
 40
1.0
 40
1.0
 40
1.0
 10
-1.792926827169686
 20
-0.4216506201767013
 30
0.0
 10
-1.792271430401313
 20
-0.4218166761813077
 30
0.0
 10
-1.789026941434926
 20
-0.4226387230706839
 30
0.0
 10
-1.795711294263661
 20
-0.4240928377481835
 30
0.0
 10
-1.812838101456232
 20
-0.4260132351738428
 30
0.0
 10
-1.840024039818638
 20
-0.4279144085352692
 30
0.0
 10
-1.869216120038699
 20
-0.4296200111063281
 30
0.0
 10
-1.887019719369592
 20
-0.4306963354140542
 30
0.0
 10
-1.894384341853539
 20
-0.4311415668557066
 30
0.0
  0
SPLINE
  5
12E
330
1F
100
AcDbEntity
  8
0
  6
Continuous
 62
     7
370
    25
100
AcDbSpline
210
0.0
220
0.0
230
1.0
 70
     8
 71
     3
 72
    15
 73
    11
 74
     0
 42
0.00000001
 43
0.00000001
 40
0.0
 40
0.0
 40
0.0
 40
0.0
 40
0.0078767758656664
 40
0.1537514667700969
 40
0.2996261576747996
 40
0.4455008485794978
 40
0.5913755394843113
 40
0.737250230388987
 40
0.8831249212936934
 40
1.0
 40
1.0
 40
1.0
 40
1.0
 10
-1.934705513422814
 20
-0.4258857964702604
 30
0.0
 10
-1.934788413453802
 20
-0.4258504837635161
 30
0.0
 10
-1.936406588399635
 20
-0.4251611940655268
 30
0.0
 10
-1.930752348033048
 20
-0.423834767361588
 30
0.0
 10
-1.917593785314929
 20
-0.4219067528991363
 30
0.0
 10
-1.896659130965347
 20
-0.4199937550296781
 30
0.0
 10
-1.872395948970223
 20
-0.4180865398440164
 30
0.0
 10
-1.8483320663476
 20
-0.4161811020563509
 30
0.0
 10
-1.828909608573432
 20
-0.4143885864187783
 30
0.0
 10
-1.821282650658087
 20
-0.4132429429100242
 30
0.0
 10
-1.817890064213709
 20
-0.4127333433185451
 30
0.0
  0
SPLINE
  5
12F
330
1F
100
AcDbEntity
  8
0
  6
Continuous
 62
     7
370
    25
100
AcDbSpline
210
0.0
220
0.0
230
1.0
 70
     8
 71
     3
 72
     9
 73
     5
 74
     0
 42
0.00000001
 43
0.00000001
 40
0.0
 40
0.0
 40
0.0
 40
0.0
 40
0.7262014132021823
 40
1.0
 40
1.0
 40
1.0
 40
1.0
 10
-1.817890064213725
 20
-0.4127333433185396
 30
0.0
 10
-1.814618547071233
 20
-0.4124515382541595
 30
0.0
 10
-1.810113574920234
 20
-0.4120634846656412
 30
0.0
 10
-1.810286661162128
 20
-0.4117023228643017
 30
0.0
 10
-1.810334051930554
 20
-0.4116034372734897
 30
0.0
  0
SPLINE
  5
130
330
1F
100
AcDbEntity
  8
0
  6
Continuous
 62
     7
370
    25
100
AcDbSpline
210
0.0
220
0.0
230
1.0
 70
     8
 71
     3
 72
    12
 73
     8
 74
     0
 42
0.00000001
 43
0.00000001
 40
0.0
 40
0.0
 40
0.0
 40
0.0
 40
0.0432493832052258
 40
0.3239835678063249
 40
0.617097962903756
 40
0.9100530634574889
 40
1.0
 40
1.0
 40
1.0
 40
1.0
 10
-1.949739552206912
 20
-0.4035821902046927
 30
0.0
 10
-1.950017405981352
 20
-0.4035394919484081
 30
0.0
 10
-1.952098824269892
 20
-0.4032196369034342
 30
0.0
 10
-1.947841675287019
 20
-0.4026434082995378
 30
0.0
 10
-1.936551743700434
 20
-0.4018111928541309
 30
0.0
 10
-1.921537169266428
 20
-0.4012481932277787
 30
0.0
 10
-1.911652889805267
 20
-0.4009085633416839
 30
0.0
 10
-1.909330988714836
 20
-0.4008287814004747
 30
0.0
  0
SPLINE
  5
131
330
1F
100
AcDbEntity
  8
0
  6
Continuous
 62
     7
370
    25
100
AcDbSpline
210
0.0
220
0.0
230
1.0
 70
     8
 71
     3
 72
    12
 73
     8
 74
     0
 42
0.00000001
 43
0.00000001
 40
0.0
 40
0.0
 40
0.0
 40
0.0
 40
0.2082811808335421
 40
0.4165623616675834
 40
0.6248435425014681
 40
0.8331247233356822
 40
0.9999999999999999
 40
0.9999999999999999
 40
0.9999999999999999
 40
0.9999999999999999
 10
-1.934934886215054
 20
-0.4218736381633072
 30
0.0
 10
-1.933902270463506
 20
-0.4212245985665759
 30
0.0
 10
-1.931837038960407
 20
-0.4199265193731116
 30
0.0
 10
-1.917286088747753
 20
-0.4180007518992125
 30
0.0
 10
-1.896760434845841
 20
-0.4160885498185278
 30
0.0
 10
-1.873877606779712
 20
-0.414302647911813
 30
0.0
 10
-1.8597089582455
 20
-0.4131695061993134
 30
0.0
 10
-1.853406528694184
 20
-0.4126654675962353
 30
0.0
  0
SPLINE
  5
132
330
1F
100
AcDbEntity
  8
0
  6
Continuous
 62
     7
370
    25
100
AcDbSpline
210
0.0
220
0.0
230
1.0
 70
     8
 71
     3
 72
    10
 73
     6
 74
     0
 42
0.00000001
 43
0.00000001
 40
0.0
 40
0.0
 40
0.0
 40
0.0
 40
0.2876574421194275
 40
0.5753148842444203
 40
1.0
 40
1.0
 40
1.0
 40
1.0
 10
-1.846698023950695
 20
-0.4009484796245362
 30
0.0
 10
-1.847344566126679
 20
-0.4020719602714103
 30
0.0
 10
-1.848637650478657
 20
-0.4043189215651802
 30
0.0
 10
-1.850875821514291
 20
-0.4082245776366602
 30
0.0
 10
-1.852461297811464
 20
-0.4110067745756006
 30
0.0
 10
-1.853406528694195
 20
-0.4126654675962508
 30
0.0
  0
SPLINE
  5
133
330
1F
100
AcDbEntity
  8
0
  6
Continuous
 62
     7
370
    25
100
AcDbSpline
210
0.0
220
0.0
230
1.0
 70
    24
 71
     3
 72
    10
 73
     6
 74
     0
 42
0.00000001
 43
0.00000001
 40
0.0
 40
0.0
 40
0.0
 40
0.0
 40
0.162169157518325
 40
0.5913588530003954
 40
1.0
 40
1.0
 40
1.0
 40
1.0
 10
-1.853406528694195
 20
-0.4126654675962508
 30
0.0
 10
-1.850972562621686
 20
-0.4126701191629927
 30
0.0
 10
-1.842096969957168
 20
-0.4126870813598445
 30
0.0
 10
-1.828495920733212
 20
-0.412713074404344
 30
0.0
 10
-1.821367069240402
 20
-0.4127266983939723
 30
0.0
 10
-1.817890064213726
 20
-0.4127333433185396
 30
0.0
  0
SPLINE
  5
136
330
1F
100
AcDbEntity
  8
0
  6
Continuous
 62
     7
370
    25
100
AcDbSpline
210
0.0
220
0.0
230
1.0
 70
     8
 71
     3
 72
     9
 73
     5
 74
     0
 42
0.00000001
 43
0.00000001
 40
0.0
 40
0.0
 40
0.0
 40
0.0
 40
0.5599161720108746
 40
1.0
 40
1.0
 40
1.0
 40
1.0
 10
-5.351618398966944
 20
-0.9371882557506805
 30
0.0
 10
-5.348081235464098
 20
-0.9322748535292408
 30
0.0
 10
-5.341763926410241
 20
-0.9234996073994605
 30
0.0
 10
-5.335593515484429
 20
-0.9146205266639423
 30
0.0
 10
-5.332878017423931
 20
-0.9107129868248313
 30
0.0
  0
SPLINE
  5
137
330
1F
100
AcDbEntity
  8
0
  6
Continuous
 62
     7
370
    25
100
AcDbSpline
210
0.0
220
0.0
230
1.0
 70
     8
 71
     3
 72
     9
 73
     5
 74
     0
 42
0.00000001
 43
0.00000001
 40
0.0
 40
0.0
 40
0.0
 40
0.0
 40
0.5602243929826413
 40
1.0
 40
1.0
 40
1.0
 40
1.0
 10
-5.802253286475364
 20
-1.05729859458995
 30
0.0
 10
-5.796578726755082
 20
-1.059418226174093
 30
0.0
 10
-5.786449643139012
 20
-1.0632017665031
 30
0.0
 10
-5.776258485914194
 20
-1.066814591149591
 30
0.0
 10
-5.771776663559441
 20
-1.068403423301549
 30
0.0
  0
CIRCLE
  5
144
330
1F
100
AcDbEntity
  8
0
  6
Continuous
 62
     7
370
    25
100
AcDbCircle
 10
0.0
 20
5.25
 30
0.0
 40
0.783125
  0
CIRCLE
  5
145
330
1F
100
AcDbEntity
  8
0
  6
Continuous
 62
     7
370
    25
100
AcDbCircle
 10
0.0
 20
5.25
 30
0.0
 40
0.7506249999999997
  0
CIRCLE
  5
146
330
1F
100
AcDbEntity
  8
0
  6
Continuous
 62
     7
370
    25
100
AcDbCircle
 10
0.0
 20
5.25
 30
0.0
 40
0.7106249999999996
  0
LWPOLYLINE
  5
152
330
1F
100
AcDbEntity
  8
0
  6
Continuous
 62
     7
370
    25
100
AcDbPolyline
 90
        3
 70
   128
 43
0.0
 10
0.696875
 20
5.25
 10
0.6933068531
 20
5.2679382859
 10
0.6868915264
 20
5.2789185218
  0
LWPOLYLINE
  5
153
330
1F
100
AcDbEntity
  8
0
  6
Continuous
 62
     7
370
    25
100
AcDbPolyline
 90
        3
 70
   128
 43
0.0
 10
0.6868915264
 20
5.2210814782
 10
0.6933068531
 20
5.2320617141
 10
0.696875
 20
5.25
  0
SPLINE
  5
16F
330
1F
100
AcDbEntity
  8
0
  6
Continuous
 62
     7
370
    25
100
AcDbSpline
210
0.0
220
0.0
230
1.0
 70
     8
 71
     3
 72
    11
 73
     7
 74
     0
 42
0.00000001
 43
0.00000001
 40
0.0
 40
0.0
 40
0.0
 40
0.0
 40
0.2499999999989626
 40
0.4999999999993163
 40
0.7499999999996536
 40
1.0
 40
1.0
 40
1.0
 40
1.0
 10
1.449699999999938
 20
0.5294917695597123
 30
0.0
 10
1.448547551802515
 20
0.5313361271174791
 30
0.0
 10
1.446242655407659
 20
0.5350248422330232
 30
0.0
 10
1.428513124200984
 20
0.5405579149063034
 30
0.0
 10
1.403170738389781
 20
0.5460909875796056
 30
0.0
 10
1.383077910171853
 20
0.5497797026951379
 30
0.0
 10
1.373031496062891
 20
0.5516240602529044
 30
0.0
  0
SPLINE
  5
173
330
1F
100
AcDbEntity
  8
0
  6
Continuous
 62
     7
370
    25
100
AcDbSpline
210
0.0
220
0.0
230
1.0
 70
     8
 71
     3
 72
    11
 73
     7
 74
     0
 42
0.00000001
 43
0.00000001
 40
0.0
 40
0.0
 40
0.0
 40
0.0
 40
0.2499999999999974
 40
0.4999999999999974
 40
0.7499999999999919
 40
1.0
 40
1.0
 40
1.0
 40
1.0
 10
1.373031496062891
 20
0.1628759397470927
 30
0.0
 10
1.383077910171848
 20
0.1647202973048591
 30
0.0
 10
1.403170738389763
 20
0.1684090124203921
 30
0.0
 10
1.428513124200949
 20
0.1739420850936914
 30
0.0
 10
1.446242655407668
 20
0.1794751577669908
 30
0.0
 10
1.448547551802515
 20
0.1831638728825244
 30
0.0
 10
1.449699999999938
 20
0.1850082304402913
 30
0.0
  0
CIRCLE
  5
1B4
330
1F
100
AcDbEntity
  8
0
  6
Continuous
 62
     7
370
    25
100
AcDbCircle
 10
0.0
 20
5.25
 30
0.0
 40
0.8000000000000034
  0
LINE
  5
1BE
330
1F
100
AcDbEntity
  8
0
  6
Continuous
 62
     7
370
    25
100
AcDbLine
 10
-3.7783120907
 20
0.1949599552
 30
0.0
 11
-3.7782786464
 21
0.2124599233
 31
0.0
  0
LINE
  5
1BF
330
1F
100
AcDbEntity
  8
0
  6
Continuous
 62
     7
370
    25
100
AcDbLine
 10
-19.7782494279
 20
0.2430375607
 30
0.0
 11
-19.7782828722
 21
0.2255375927
 31
0.0
  0
LINE
  5
1C0
330
1F
100
AcDbEntity
  8
0
  6
Continuous
 62
     7
370
    25
100
AcDbLine
 10
-21.5256815992
 20
0.1689184895
 30
0.0
 11
-21.5253385776
 21
0.1687181966
 31
0.0
  0
LINE
  5
1C1
330
1F
100
AcDbEntity
  8
0
  6
Continuous
 62
     7
370
    25
100
AcDbLine
 10
-1.7911975066
 20
-0.401054547
 30
0.0
 11
-1.7911943258
 21
-0.399390146
 31
0.0
  0
LINE
  5
1C2
330
1F
100
AcDbEntity
  8
0
  6
Continuous
 62
     7
370
    25
100
AcDbLine
 10
-1.7912454061
 20
-0.4261183202
 30
0.0
 11
-1.7912379409
 21
-0.4222120773
 31
0.0
  0
LINE
  5
1C3
330
1F
100
AcDbEntity
  8
0
  6
Continuous
 62
     7
370
    25
100
AcDbLine
 10
-1.9552077804
 20
-0.4062736851
 30
0.0
 11
-1.9552152457
 21
-0.4101799279
 31
0.0
  0
LINE
  5
1C4
330
1F
100
AcDbEntity
  8
0
  6
Continuous
 62
     7
370
    25
100
AcDbLine
 10
-1.9551940263
 20
-0.3990767252
 30
0.0
 11
-1.9551972071
 21
-0.4007411262
 31
0.0
  0
LINE
  5
1C5
330
1F
100
AcDbEntity
  8
0
  6
Continuous
 62
     7
370
    25
100
AcDbLine
 10
-1.9349436165
 20
-0.4258964125
 30
0.0
 11
-1.9438360279
 21
-0.4310470595
 31
0.0
  0
LINE
  5
1C6
330
1F
100
AcDbEntity
  8
0
  6
Continuous
 62
     7
370
    25
100
AcDbLine
 10
-1.9503046362
 20
-0.4035810004
 30
0.0
 11
-1.9551758426
 21
-0.4064048543
 31
0.0
  0
LINE
  5
1C7
330
1F
100
AcDbEntity
  8
0
  6
Continuous
 62
     7
370
    25
100
AcDbLine
 10
-1.7998248704
 20
-0.43132228
 30
0.0
 11
-1.7916407123
 21
-0.4265885861
 31
0.0
  0
LINE
  5
1C8
330
1F
100
AcDbEntity
  8
0
  6
Continuous
 62
     7
370
    25
100
AcDbLine
 10
-1.9551972071
 20
-0.4007411262
 30
0.0
 11
-1.9501757513
 21
-0.4036558111
 31
0.0
  0
LINE
  5
1C9
330
1F
100
AcDbEntity
  8
0
  6
Continuous
 62
     7
370
    25
100
AcDbLine
 10
-1.8101346623
 20
-0.4119499924
 30
0.0
 11
-1.7911975066
 21
-0.401054547
 31
0.0
  0
LINE
  5
1CA
330
1F
100
AcDbEntity
  8
0
  6
Continuous
 62
     7
370
    25
100
AcDbLine
 10
-21.150682284
 20
0.1682018262
 30
0.0
 11
-21.1503392624
 21
0.1680015332
 31
0.0
  0
LINE
  5
1CB
330
1F
100
AcDbEntity
  8
0
  6
Continuous
 62
     7
370
    25
100
AcDbLine
 10
-1.375
 20
-13.7484851748
 30
0.0
 11
-1.7355622175
 21
-12.5939449003
 31
0.0
  0
LINE
  5
1CC
330
1F
100
AcDbEntity
  8
0
  6
Continuous
 62
     7
370
    25
100
AcDbLine
 10
-2.1113631938
 20
-12.711307314
 30
0.0
 11
-1.375
 21
-15.0691832167
 31
0.0
  0
LINE
  5
1CD
330
1F
100
AcDbEntity
  8
0
  6
Continuous
 62
     7
370
    25
100
AcDbLine
 10
-5.279846799
 20
-0.9147740292
 30
0.0
 11
-5.2669248708
 21
-0.8901158597
 31
0.0
  0
LINE
  5
1CE
330
1F
100
AcDbEntity
  8
0
  6
Continuous
 62
     7
370
    25
100
AcDbLine
 10
-5.868206433
 20
-1.0778957217
 30
0.0
 11
-5.8435482635
 21
-1.0908176498
 31
0.0
  0
LINE
  5
1CF
330
1F
100
AcDbEntity
  8
0
  6
Continuous
 62
     7
370
    25
100
AcDbLine
 10
-5.2669248708
 20
-0.8901158597
 30
0.0
 11
-5.3350215214
 21
-0.6720665971
 31
0.0
  0
LINE
  5
1D0
330
1F
100
AcDbEntity
  8
0
  6
Continuous
 62
     7
370
    25
100
AcDbLine
 10
-5.9953407221
 20
-0.6708046572
 30
0.0
 11
-5.868206433
 21
-1.0778957217
 31
0.0
  0
LINE
  5
1D1
330
1F
100
AcDbEntity
  8
0
  6
Continuous
 62
     7
370
    25
100
AcDbLine
 10
-1.5669541802
 20
-12.3414183885
 30
0.0
 11
-5.0823105586
 21
-1.0850517431
 31
0.0
  0
LINE
  5
1D2
330
1F
100
AcDbEntity
  8
0
  6
Continuous
 62
     7
370
    25
100
AcDbLine
 10
-5.9090727066
 20
-1.3432490533
 30
0.0
 11
-2.3937163282
 21
-12.5996156987
 31
0.0
  0
LINE
  5
1D3
330
1F
100
AcDbEntity
  8
0
  6
Continuous
 62
     7
370
    25
100
AcDbLine
 10
-5.2324094649
 20
-0.9412046976
 30
0.0
 11
-5.2441457062
 21
-0.9036245999
 31
0.0
  0
LINE
  5
1D4
330
1F
100
AcDbEntity
  8
0
  6
Continuous
 62
     7
370
    25
100
AcDbLine
 10
-5.8792493563
 20
-1.1019670791
 30
0.0
 11
-5.8675131149
 21
-1.1395471768
 31
0.0
  0
LINE
  5
1D5
330
1F
100
AcDbEntity
  8
0
  6
Continuous
 62
     7
370
    25
100
AcDbLine
 10
-5.8675131149
 20
-1.1395471768
 30
0.0
 11
-5.843056119
 21
-1.1385462613
 31
0.0
  0
LINE
  5
1D6
330
1F
100
AcDbEntity
  8
0
  6
Continuous
 62
     7
370
    25
100
AcDbLine
 10
-5.2530893868
 20
-0.9543000137
 30
0.0
 11
-5.2324094649
 21
-0.9412046976
 31
0.0
  0
LINE
  5
1D7
330
1F
100
AcDbEntity
  8
0
  6
Continuous
 62
     7
370
    25
100
AcDbLine
 10
-1.6101371338
 20
-12.5465256601
 30
0.0
 11
-1.6154184424
 21
-12.5296146162
 31
0.0
  0
LINE
  5
1D8
330
1F
100
AcDbEntity
  8
0
  6
Continuous
 62
     7
370
    25
100
AcDbLine
 10
-2.2467640827
 20
-12.7267834712
 30
0.0
 11
-2.2414827741
 21
-12.7436945152
 31
0.0
  0
LINE
  5
1D9
330
1F
100
AcDbEntity
  8
0
  6
Continuous
 62
     7
370
    25
100
AcDbLine
 10
-2.2414827741
 20
-12.7436945152
 30
0.0
 11
-2.2316195063
 21
-12.7488632864
 31
0.0
  0
LINE
  5
1DA
330
1F
100
AcDbEntity
  8
0
  6
Continuous
 62
     7
370
    25
100
AcDbLine
 10
-1.615305905
 20
-12.5563889279
 30
0.0
 11
-1.6101371338
 21
-12.5465256601
 31
0.0
  0
LINE
  5
1DB
330
1F
100
AcDbEntity
  8
0
  6
Continuous
 62
     7
370
    25
100
AcDbLine
 10
-1.6154184424
 20
-12.5296146161
 30
0.0
 11
-1.6254858909
 21
-12.5236473485
 31
0.0
  0
LINE
  5
1DC
330
1F
100
AcDbEntity
  8
0
  6
Continuous
 62
     7
370
    25
100
AcDbLine
 10
-2.2418818393
 20
-12.7161474239
 30
0.0
 11
-2.2467640827
 21
-12.7267834712
 31
0.0
  0
LINE
  5
1DD
330
1F
100
AcDbEntity
  8
0
  6
Continuous
 62
     7
370
    25
100
AcDbLine
 10
-1.6254858909
 20
-12.5236473485
 30
0.0
 11
-1.6458682049
 21
-12.527736251
 31
0.0
  0
LINE
  5
1DE
330
1F
100
AcDbEntity
  8
0
  6
Continuous
 62
     7
370
    25
100
AcDbLine
 10
-2.2227950583
 20
-12.7079101524
 30
0.0
 11
-2.2418818393
 21
-12.7161474239
 31
0.0
  0
LINE
  5
1DF
330
1F
100
AcDbEntity
  8
0
  6
Continuous
 62
     7
370
    25
100
AcDbLine
 10
-22.0203281662
 20
0.1385722119
 30
0.0
 11
-22.0186126992
 21
1.0362028039
 31
0.0
  0
LINE
  5
1E0
330
1F
100
AcDbEntity
  8
0
  6
Continuous
 62
     7
370
    25
100
AcDbLine
 10
-22.0186126992
 20
1.0362028039
 30
0.0
 11
-21.9874163646
 21
1.0080921259
 31
0.0
  0
LINE
  5
1E1
330
1F
100
AcDbEntity
  8
0
  6
Continuous
 62
     7
370
    25
100
AcDbLine
 10
-21.9874163646
 20
1.0080921259
 30
0.0
 11
-21.9890782233
 21
0.1385124899
 31
0.0
  0
LINE
  5
1E2
330
1F
100
AcDbEntity
  8
0
  6
Continuous
 62
     7
370
    25
100
AcDbLine
 10
-21.9890782233
 20
0.1385124899
 30
0.0
 11
-22.0847030487
 21
0.1386952391
 31
0.0
  0
LINE
  5
1E3
330
1F
100
AcDbEntity
  8
0
  6
Continuous
 62
     7
370
    25
100
AcDbLine
 10
-21.7394009058
 20
0.9505368139
 30
0.0
 11
-21.7390425741
 21
1.1380364715
 31
0.0
  0
LINE
  5
1E4
330
1F
100
AcDbEntity
  8
0
  6
Continuous
 62
     7
370
    25
100
AcDbLine
 10
-21.8622244746
 20
1.1083805262
 30
0.0
 11
-21.7390996994
 21
1.1081452217
 31
0.0
  0
LINE
  5
1E5
330
1F
100
AcDbEntity
  8
0
  6
Continuous
 62
     7
370
    25
100
AcDbLine
 10
-22.0518502457
 20
0.9773436629
 30
0.0
 11
-22.0538514411
 21
-0.069796353
 31
0.0
  0
LINE
  5
1E6
330
1F
100
AcDbEntity
  8
0
  6
Continuous
 62
     7
370
    25
100
AcDbLine
 10
-21.8952922887
 20
1.1383350812
 30
0.0
 11
-21.7390425741
 21
1.1380364715
 31
0.0
  0
LINE
  5
1E7
330
1F
100
AcDbEntity
  8
0
  6
Continuous
 62
     7
370
    25
100
AcDbLine
 10
-22.085101384
 20
-0.0697366311
 30
0.0
 11
-22.083150278
 21
0.9511937553
 31
0.0
  0
LINE
  5
1E8
330
1F
100
AcDbEntity
  8
0
  6
Continuous
 62
     7
370
    25
100
AcDbLine
 10
-22.0518502457
 20
0.9773436629
 30
0.0
 11
-22.083150278
 21
0.9511937553
 31
0.0
  0
LINE
  5
1E9
330
1F
100
AcDbEntity
  8
0
  6
Continuous
 62
     7
370
    25
100
AcDbLine
 10
-21.8100021606
 20
-0.0180800287
 30
0.0
 11
-21.8643770613
 21
-0.0179761125
 31
0.0
  0
LINE
  5
1EA
330
1F
100
AcDbEntity
  8
0
  6
Continuous
 62
     7
370
    25
100
AcDbLine
 10
-22.0393382575
 20
-0.1358583132
 30
0.0
 11
-21.8749107157
 21
-0.4902409475
 31
0.0
  0
LINE
  5
1EB
330
1F
100
AcDbEntity
  8
0
  6
Continuous
 62
     7
370
    25
100
AcDbLine
 10
-21.8643770613
 20
-0.0179761125
 30
0.0
 11
-21.8643173394
 21
0.0132738304
 31
0.0
  0
LINE
  5
1EC
330
1F
100
AcDbEntity
  8
0
  6
Continuous
 62
     7
370
    25
100
AcDbLine
 10
-22.0538514411
 20
-0.069796353
 30
0.0
 11
-22.085101384
 21
-0.0697366311
 31
0.0
  0
LINE
  5
1ED
330
1F
100
AcDbEntity
  8
0
  6
Continuous
 62
     7
370
    25
100
AcDbLine
 10
-21.8749107157
 20
-0.4902409475
 30
0.0
 11
-21.9032580219
 21
-0.5033936176
 31
0.0
  0
LINE
  5
1EE
330
1F
100
AcDbEntity
  8
0
  6
Continuous
 62
     7
370
    25
100
AcDbLine
 10
-21.9032580219
 20
-0.5033936176
 30
0.0
 11
-22.0676855637
 21
-0.1490109833
 31
0.0
  0
LINE
  5
1EF
330
1F
100
AcDbEntity
  8
0
  6
Continuous
 62
     7
370
    25
100
AcDbLine
 10
-22.0393382575
 20
-0.1358583132
 30
0.0
 11
-22.0676855637
 21
-0.1490109833
 31
0.0
  0
LINE
  5
1F0
330
1F
100
AcDbEntity
  8
0
  6
Continuous
 62
     7
370
    25
100
AcDbLine
 10
-21.8643173394
 20
0.0132738304
 30
0.0
 11
-21.8099424386
 21
0.0131699142
 31
0.0
  0
LINE
  5
1F1
330
1F
100
AcDbEntity
  8
0
  6
Continuous
 62
     7
370
    25
100
AcDbLine
 10
-21.8622244746
 20
1.1083805262
 30
0.0
 11
-21.8625256809
 21
0.9507721184
 31
0.0
  0
LINE
  5
1F2
330
1F
100
AcDbEntity
  8
0
  6
Continuous
 62
     7
370
    25
100
AcDbLine
 10
-21.7394009058
 20
0.9505368139
 30
0.0
 11
-21.8625256809
 21
0.9507721184
 31
0.0
  0
LINE
  5
1F3
330
1F
100
AcDbEntity
  8
0
  6
Continuous
 62
     7
370
    25
100
AcDbLine
 10
-21.7078523531
 20
1.1067268066
 30
0.0
 11
-21.7080912409
 21
0.9817270349
 31
0.0
  0
LINE
  5
1F4
330
1F
100
AcDbEntity
  8
0
  6
Continuous
 62
     7
370
    25
100
AcDbLine
 10
-21.7080912409
 20
0.9817270349
 30
0.0
 11
-21.7394009058
 21
0.9505368139
 31
0.0
  0
LINE
  5
1F5
330
1F
100
AcDbEntity
  8
0
  6
Continuous
 62
     7
370
    25
100
AcDbLine
 10
-21.7079076933
 20
1.0777696584
 30
0.0
 11
-21.7390996994
 21
1.1081452217
 31
0.0
  0
LINE
  5
1F6
330
1F
100
AcDbEntity
  8
0
  6
Continuous
 62
     7
370
    25
100
AcDbLine
 10
-21.7078523531
 20
1.1067268066
 30
0.0
 11
-21.7390425741
 21
1.1380364715
 31
0.0
  0
LINE
  5
1F7
330
1F
100
AcDbEntity
  8
0
  6
Continuous
 62
     7
370
    25
100
AcDbLine
 10
-1.375
 20
-0.4001855374
 30
0.0
 11
-1.5000743566
 21
-0.399946507
 31
0.0
  0
LINE
  5
1F8
330
1F
100
AcDbEntity
  8
0
  6
Continuous
 62
     7
370
    25
100
AcDbLine
 10
-1.5085526911
 20
-0.4034393802
 30
0.0
 11
-1.5335307202
 21
-0.4283221201
 31
0.0
  0
LINE
  5
1F9
330
1F
100
AcDbEntity
  8
0
  6
Continuous
 62
     7
370
    25
100
AcDbLine
 10
-1.5420090548
 20
-0.4318149933
 30
0.0
 11
-2.0607548906
 21
-0.4308236151
 31
0.0
  0
LINE
  5
1FA
330
1F
100
AcDbEntity
  8
0
  6
Continuous
 62
     7
370
    25
100
AcDbLine
 10
-1.7262495687
 20
-0.427953814
 30
0.0
 11
-1.7511323086
 21
-0.4029757849
 31
0.0
  0
LINE
  5
1FB
330
1F
100
AcDbEntity
  8
0
  6
Continuous
 62
     7
370
    25
100
AcDbLine
 10
-1.7595972307
 20
-0.3994505313
 30
0.0
 11
-2.0606938336
 21
-0.3988751039
 31
0.0
  0
LINE
  5
1FC
330
1F
100
AcDbEntity
  8
0
  6
Continuous
 62
     7
370
    25
100
AcDbLine
 10
-1.8954087292
 20
-0.2993515189
 30
0.0
 11
-1.8955995323
 21
-0.3991906166
 31
0.0
  0
LINE
  5
1FD
330
1F
100
AcDbEntity
  8
0
  6
Continuous
 62
     7
370
    25
100
AcDbLine
 10
-2.0580155327
 20
-0.2990407601
 30
0.0
 11
-1.375
 21
-0.300346075
 31
0.0
  0
LINE
  5
1FE
330
1F
100
AcDbEntity
  8
0
  6
Continuous
 62
     7
370
    25
100
AcDbLine
 10
-1.9580994182
 20
-0.3990711727
 30
0.0
 11
-1.9579086151
 21
-0.299232075
 31
0.0
  0
LINE
  5
1FF
330
1F
100
AcDbEntity
  8
0
  6
Continuous
 62
     7
370
    25
100
AcDbLine
 10
-2.0605038056
 20
-0.2994415947
 30
0.0
 11
-2.0580155327
 21
-0.2990407601
 31
0.0
  0
LINE
  5
200
330
1F
100
AcDbEntity
  8
0
  6
Continuous
 62
     7
370
    25
100
AcDbLine
 10
-3.5907789888
 20
0.2121015916
 30
0.0
 11
-3.5908124331
 21
0.1946016235
 31
0.0
  0
LINE
  5
201
330
1F
100
AcDbEntity
  8
0
  6
Continuous
 62
     7
370
    25
100
AcDbLine
 10
-19.9657490855
 20
0.2433958924
 30
0.0
 11
-19.9657825297
 21
0.2258959244
 31
0.0
  0
LINE
  5
202
330
1F
100
AcDbEntity
  8
0
  6
Continuous
 62
     7
370
    25
100
AcDbLine
 10
-1.6844942479
 20
0.2284585162
 30
0.0
 11
-1.6845324699
 21
0.2084585528
 31
0.0
  0
LINE
  5
203
330
1F
100
AcDbEntity
  8
0
  6
Continuous
 62
     7
370
    25
100
AcDbLine
 10
-1.8095322416
 20
0.2086974405
 30
0.0
 11
-1.8094940196
 21
0.228697404
 31
0.0
  0
LINE
  5
204
330
1F
100
AcDbEntity
  8
0
  6
Continuous
 62
     7
370
    25
100
AcDbLine
 10
-20.9344590943
 20
0.2652472363
 30
0.0
 11
-20.9344973164
 21
0.2452472728
 31
0.0
  0
LINE
  5
205
330
1F
100
AcDbEntity
  8
0
  6
Continuous
 62
     7
370
    25
100
AcDbLine
 10
-21.8094957185
 20
0.2469194873
 30
0.0
 11
-1.6845324699
 21
0.2084585528
 31
0.0
  0
LINE
  5
206
330
1F
100
AcDbEntity
  8
0
  6
Continuous
 62
     7
370
    25
100
AcDbLine
 10
-21.8094957185
 20
0.2469194873
 30
0.0
 11
-21.8094574964
 21
0.2669194508
 31
0.0
  0
LINE
  5
207
330
1F
100
AcDbEntity
  8
0
  6
Continuous
 62
     7
370
    25
100
AcDbLine
 10
-21.8094574964
 20
0.2669194508
 30
0.0
 11
-1.6844942479
 21
0.2284585162
 31
0.0
  0
LINE
  5
208
330
1F
100
AcDbEntity
  8
0
  6
Continuous
 62
     7
370
    25
100
AcDbLine
 10
-1.9343743474
 20
0.2914361777
 30
0.0
 11
-1.9344937913
 21
0.2289362918
 31
0.0
  0
LINE
  5
209
330
1F
100
AcDbEntity
  8
0
  6
Continuous
 62
     7
370
    25
100
AcDbLine
 10
-2.9344919652
 20
0.2308473942
 30
0.0
 11
-2.9343725213
 21
0.29334728
 31
0.0
  0
LINE
  5
20A
330
1F
100
AcDbEntity
  8
0
  6
Continuous
 62
     7
370
    25
100
AcDbLine
 10
-20.5593403352
 20
0.3270304588
 30
0.0
 11
-20.5594597791
 21
0.2645305729
 31
0.0
  0
LINE
  5
20B
330
1F
100
AcDbEntity
  8
0
  6
Continuous
 62
     7
370
    25
100
AcDbLine
 10
-21.559457953
 20
0.2664416752
 30
0.0
 11
-21.5593385091
 21
0.3289415611
 31
0.0
  0
LINE
  5
20C
330
1F
100
AcDbEntity
  8
0
  6
Continuous
 62
     7
370
    25
100
AcDbLine
 10
-19.746841819
 20
0.3254776881
 30
0.0
 11
-19.7469612629
 21
0.2629778022
 31
0.0
  0
LINE
  5
20D
330
1F
100
AcDbEntity
  8
0
  6
Continuous
 62
     7
370
    25
100
AcDbLine
 10
-3.7468710375
 20
0.2949000507
 30
0.0
 11
-3.7469904814
 21
0.2324001648
 31
0.0
  0
LINE
  5
20E
330
1F
100
AcDbEntity
  8
0
  6
Continuous
 62
     7
370
    25
100
AcDbLine
 10
-21.935568711
 20
0.3396605951
 30
0.0
 11
-21.935587822
 21
0.3296606133
 31
0.0
  0
LINE
  5
20F
330
1F
100
AcDbEntity
  8
0
  6
Continuous
 62
     7
370
    25
100
AcDbLine
 10
-21.9355782665
 20
0.3346606042
 30
0.0
 11
-1.558115479
 21
0.2957171163
 31
0.0
  0
LINE
  5
210
330
1F
100
AcDbEntity
  8
0
  6
Continuous
 62
     7
370
    25
100
AcDbLine
 10
-20.9655704823
 20
0.3378068258
 30
0.0
 11
-20.9655895934
 21
0.3278068441
 31
0.0
  0
LINE
  5
211
330
1F
100
AcDbEntity
  8
0
  6
Continuous
 62
     7
370
    25
100
AcDbLine
 10
-21.935587822
 20
0.3296606133
 30
0.0
 11
-1.5581250345
 21
0.2907171254
 31
0.0
  0
LINE
  5
212
330
1F
100
AcDbEntity
  8
0
  6
Continuous
 62
     7
370
    25
100
AcDbLine
 10
-1.5581059235
 20
0.3007171072
 30
0.0
 11
-1.5581250345
 21
0.2907171254
 31
0.0
  0
LINE
  5
213
330
1F
100
AcDbEntity
  8
0
  6
Continuous
 62
     7
370
    25
100
AcDbLine
 10
-21.935568711
 20
0.3396605951
 30
0.0
 11
-1.5581059235
 21
0.3007171072
 31
0.0
  0
LINE
  5
214
330
1F
100
AcDbEntity
  8
0
  6
Continuous
 62
     7
370
    25
100
AcDbLine
 10
-1.425980315
 20
21.0
 30
0.0
 11
-1.425980315
 21
0.625
 31
0.0
  0
LINE
  5
215
330
1F
100
AcDbEntity
  8
0
  6
Continuous
 62
     7
370
    25
100
AcDbLine
 10
-1.425980315
 20
21.0
 30
0.0
 11
-1.375
 21
21.0
 31
0.0
  0
LINE
  5
216
330
1F
100
AcDbEntity
  8
0
  6
Continuous
 62
     7
370
    25
100
AcDbLine
 10
-1.455980315
 20
0.655
 30
0.0
 11
-1.455980315
 21
20.97
 31
0.0
  0
LINE
  5
217
330
1F
100
AcDbEntity
  8
0
  6
Continuous
 62
     7
370
    25
100
AcDbLine
 10
-1.425980315
 20
0.625
 30
0.0
 11
-1.375
 21
0.625
 31
0.0
  0
LINE
  5
218
330
1F
100
AcDbEntity
  8
0
  6
Continuous
 62
     7
370
    25
100
AcDbLine
 10
-21.9040158959
 20
0.4980808987
 30
0.0
 11
-1.5890529943
 21
0.4592568547
 31
0.0
  0
LINE
  5
219
330
1F
100
AcDbEntity
  8
0
  6
Continuous
 62
     7
370
    25
100
AcDbLine
 10
-20.9340176673
 20
0.4962271294
 30
0.0
 11
-20.9343186283
 21
0.338747102
 31
0.0
  0
LINE
  5
21A
330
1F
100
AcDbEntity
  8
0
  6
Continuous
 62
     7
370
    25
100
AcDbLine
 10
-1.5591103822
 20
0.4291995764
 30
0.0
 11
-21.9340731742
 21
0.4681382865
 31
0.0
  0
LINE
  5
21B
330
1F
100
AcDbEntity
  8
0
  6
Continuous
 62
     7
370
    25
100
AcDbLine
 10
-1.5591103822
 20
0.4291995764
 30
0.0
 11
-1.559296677
 21
0.3317194394
 31
0.0
  0
LINE
  5
21C
330
1F
100
AcDbEntity
  8
0
  6
Continuous
 62
     7
370
    25
100
AcDbLine
 10
-21.9342594691
 20
0.3706581496
 30
0.0
 11
-1.559296677
 21
0.3317194394
 31
0.0
  0
LINE
  5
21D
330
1F
100
AcDbEntity
  8
0
  6
Continuous
 62
     7
370
    25
100
AcDbLine
 10
-21.9342594691
 20
0.3706581496
 30
0.0
 11
-21.9340731742
 21
0.4681382865
 31
0.0
  0
LINE
  5
21E
330
1F
100
AcDbEntity
  8
0
  6
Continuous
 62
     7
370
    25
100
AcDbLine
 10
-1.5893539553
 20
0.3017768273
 30
0.0
 11
-21.9043168569
 21
0.3406008713
 31
0.0
  0
LINE
  5
21F
330
1F
100
AcDbEntity
  8
0
  6
Continuous
 62
     7
370
    25
100
AcDbLine
 10
-1.9093309887
 20
-0.4008287814
 30
0.0
 11
-1.9551972071
 21
-0.4007411262
 31
0.0
  0
LINE
  5
220
330
1F
100
AcDbEntity
  8
0
  6
Continuous
 62
     7
370
    25
100
AcDbLine
 10
-1.7911975066
 20
-0.401054547
 30
0.0
 11
-1.846698024
 21
-0.4009484796
 31
0.0
  0
LINE
  5
221
330
1F
100
AcDbEntity
  8
0
  6
Continuous
 62
     7
370
    25
100
AcDbLine
 10
-5.9229118771
 20
-0.6709430764
 30
0.0
 11
-5.8022532865
 21
-1.0572985946
 31
0.0
  0
LINE
  5
222
330
1F
100
AcDbEntity
  8
0
  6
Continuous
 62
     7
370
    25
100
AcDbLine
 10
-5.3328780174
 20
-0.9107129868
 30
0.0
 11
-5.4074503664
 21
-0.6719281779
 31
0.0
  0
LINE
  5
223
330
1F
100
AcDbEntity
  8
0
  6
Continuous
 62
     7
370
    25
100
AcDbLine
 10
-5.3328780174
 20
-0.9107129868
 30
0.0
 11
-5.2669248708
 21
-0.8901158597
 31
0.0
  0
LINE
  5
224
330
1F
100
AcDbEntity
  8
0
  6
Continuous
 62
     7
370
    25
100
AcDbLine
 10
-5.868206433
 20
-1.0778957217
 30
0.0
 11
-5.8022532865
 21
-1.0572985946
 31
0.0
  0
LINE
  5
225
330
1F
100
AcDbEntity
  8
0
  6
Continuous
 62
     7
370
    25
100
AcDbLine
 10
-5.2530893868
 20
-0.9543000137
 30
0.0
 11
-5.843056119
 21
-1.1385462613
 31
0.0
  0
LINE
  5
226
330
1F
100
AcDbEntity
  8
0
  6
Continuous
 62
     7
370
    25
100
AcDbLine
 10
-5.0823105586
 20
-1.0850517431
 30
0.0
 11
-5.9090727066
 21
-1.3432490533
 31
0.0
  0
LINE
  5
227
330
1F
100
AcDbEntity
  8
0
  6
Continuous
 62
     7
370
    25
100
AcDbLine
 10
-1.5669541802
 20
-12.3414183885
 30
0.0
 11
-2.3937163282
 21
-12.5996156987
 31
0.0
  0
LINE
  5
228
330
1F
100
AcDbEntity
  8
0
  6
Continuous
 62
     7
370
    25
100
AcDbLine
 10
-1.6458682049
 20
-12.527736251
 30
0.0
 11
-2.2227950583
 21
-12.7079101524
 31
0.0
  0
LINE
  5
229
330
1F
100
AcDbEntity
  8
0
  6
Continuous
 62
     7
370
    25
100
AcDbLine
 10
-5.2324094649
 20
-0.9412046976
 30
0.0
 11
-5.8675131149
 21
-1.1395471768
 31
0.0
  0
LINE
  5
22A
330
1F
100
AcDbEntity
  8
0
  6
Continuous
 62
     7
370
    25
100
AcDbLine
 10
-5.2441457062
 20
-0.9036245999
 30
0.0
 11
-5.8792493563
 21
-1.1019670791
 31
0.0
  0
LINE
  5
22B
330
1F
100
AcDbEntity
  8
0
  6
Continuous
 62
     7
370
    25
100
AcDbLine
 10
-1.6101371338
 20
-12.5465256601
 30
0.0
 11
-2.2414827741
 21
-12.7436945152
 31
0.0
  0
LINE
  5
22C
330
1F
100
AcDbEntity
  8
0
  6
Continuous
 62
     7
370
    25
100
AcDbLine
 10
-1.6154184424
 20
-12.5296146161
 30
0.0
 11
-2.2467640827
 21
-12.7267834712
 31
0.0
  0
LINE
  5
22D
330
1F
100
AcDbEntity
  8
0
  6
Continuous
 62
     7
370
    25
100
AcDbLine
 10
-1.615305905
 20
-12.5563889279
 30
0.0
 11
-2.2316195063
 21
-12.7488632864
 31
0.0
  0
LINE
  5
22E
330
1F
100
AcDbEntity
  8
0
  6
Continuous
 62
     7
370
    25
100
AcDbLine
 10
-1.6254858909
 20
-12.5236473485
 30
0.0
 11
-2.2418818393
 21
-12.7161474239
 31
0.0
  0
LINE
  5
22F
330
1F
100
AcDbEntity
  8
0
  6
Continuous
 62
     7
370
    25
100
AcDbLine
 10
0.6097915125
 20
4.925
 30
0.0
 11
0.6093247724
 21
4.9315984113
 31
0.0
  0
LINE
  5
230
330
1F
100
AcDbEntity
  8
0
  6
Continuous
 62
     7
370
    25
100
AcDbLine
 10
-1.515980315
 20
19.8416515139
 30
0.0
 11
-1.515980315
 21
20.4083484861
 31
0.0
  0
LINE
  5
231
330
1F
100
AcDbEntity
  8
0
  6
Continuous
 62
     7
370
    25
100
AcDbLine
 10
-1.3864408561
 20
0.031495427
 30
0.0
 11
-1.375
 21
0.0128374476
 31
0.0
  0
LINE
  5
232
330
1F
100
AcDbEntity
  8
0
  6
Continuous
 62
     7
370
    25
100
AcDbLine
 10
-1.375
 20
0.1002956996
 30
0.0
 11
-1.3787143518
 21
0.0965884396
 31
0.0
  0
LINE
  5
233
330
1F
100
AcDbEntity
  8
0
  6
Continuous
 62
     7
370
    25
100
AcDbLine
 10
-1.375
 20
0.0493183326
 30
0.0
 11
-1.3857522065
 21
0.0303723632
 31
0.0
  0
LINE
  5
234
330
1F
100
AcDbEntity
  8
0
  6
Continuous
 62
     7
370
    25
100
AcDbLine
 10
-1.375
 20
0.1144243411
 30
0.0
 11
-1.3857786596
 21
0.1036662609
 31
0.0
  0
LINE
  5
235
330
1F
100
AcDbEntity
  8
0
  6
Continuous
 62
     7
370
    25
100
AcDbLine
 10
-1.3949657854
 20
0.0262680395
 30
0.0
 11
-1.375
 21
-0.0062925669
 31
0.0
  0
LINE
  5
236
330
1F
100
AcDbEntity
  8
0
  6
Continuous
 62
     7
370
    25
100
AcDbLine
 10
-1.375
 20
-0.1470896383
 30
0.0
 11
-1.5204617158
 21
0.0410999289
 31
0.0
  0
LINE
  5
237
330
1F
100
AcDbEntity
  8
0
  6
Continuous
 62
     7
370
    25
100
AcDbLine
 10
-1.5151299306
 20
0.1240848566
 30
0.0
 11
-1.375
 21
0.2639472405
 31
0.0
  0
LINE
  5
238
330
1F
100
AcDbEntity
  8
0
  6
Continuous
 62
     7
370
    25
100
AcDbLine
 10
1.375
 20
-20.375
 30
0.0
 11
1.4497
 21
-20.375
 31
0.0
  0
LINE
  5
239
330
1F
100
AcDbEntity
  8
0
  6
Continuous
 62
     7
370
    25
100
AcDbLine
 10
1.375
 20
-19.5
 30
0.0
 11
1.4497
 21
-19.5
 31
0.0
  0
LINE
  5
23A
330
1F
100
AcDbEntity
  8
0
  6
Continuous
 62
     7
370
    25
100
AcDbLine
 10
1.375
 20
-17.0625
 30
0.0
 11
1.4497
 21
-17.0625
 31
0.0
  0
LINE
  5
23B
330
1F
100
AcDbEntity
  8
0
  6
Continuous
 62
     7
370
    25
100
AcDbLine
 10
1.4497
 20
18.4375
 30
0.0
 11
1.375
 21
18.4375
 31
0.0
  0
LINE
  5
23C
330
1F
100
AcDbEntity
  8
0
  6
Continuous
 62
     7
370
    25
100
AcDbLine
 10
1.375
 20
20.9375
 30
0.0
 11
1.4497
 21
20.9375
 31
0.0
  0
LINE
  5
23D
330
1F
100
AcDbEntity
  8
0
  6
Continuous
 62
     7
370
    25
100
AcDbLine
 10
1.375
 20
20.0625
 30
0.0
 11
1.4497
 21
20.0625
 31
0.0
  0
LINE
  5
23E
330
1F
100
AcDbEntity
  8
0
  6
Continuous
 62
     7
370
    25
100
AcDbLine
 10
1.375
 20
16.9375
 30
0.0
 11
1.4497
 21
16.9375
 31
0.0
  0
LINE
  5
23F
330
1F
100
AcDbEntity
  8
0
  6
Continuous
 62
     7
370
    25
100
AcDbLine
 10
1.375
 20
0.1850082304
 30
0.0
 11
1.4497
 21
0.1850082304
 31
0.0
  0
LINE
  5
240
330
1F
100
AcDbEntity
  8
0
  6
Continuous
 62
     7
370
    25
100
AcDbLine
 10
1.375
 20
0.5294917696
 30
0.0
 11
1.4497
 21
0.5294917696
 31
0.0
  0
LINE
  5
241
330
1F
100
AcDbEntity
  8
0
  6
Continuous
 62
     7
370
    25
100
AcDbLine
 10
1.4497
 20
-15.5625
 30
0.0
 11
1.375
 21
-15.5625
 31
0.0
  0
LINE
  5
242
330
1F
100
AcDbEntity
  8
0
  6
Continuous
 62
     7
370
    25
100
AcDbLine
 10
1.375
 20
0.35725
 30
0.0
 11
1.4497
 21
0.35725
 31
0.0
  0
LINE
  5
243
330
1F
100
AcDbEntity
  8
0
  6
Continuous
 62
     7
370
    25
100
AcDbLine
 10
1.4497
 20
-17.03125
 30
0.0
 11
1.375
 21
-17.03125
 31
0.0
  0
LINE
  5
244
330
1F
100
AcDbEntity
  8
0
  6
Continuous
 62
     7
370
    25
100
AcDbLine
 10
1.375
 20
-15.59375
 30
0.0
 11
1.4497
 21
-15.59375
 31
0.0
  0
LINE
  5
245
330
1F
100
AcDbEntity
  8
0
  6
Continuous
 62
     7
370
    25
100
AcDbLine
 10
1.4497
 20
16.96875
 30
0.0
 11
1.375
 21
16.96875
 31
0.0
  0
LINE
  5
246
330
1F
100
AcDbEntity
  8
0
  6
Continuous
 62
     7
370
    25
100
AcDbLine
 10
1.375
 20
18.40625
 30
0.0
 11
1.4497
 21
18.40625
 31
0.0
  0
LINE
  5
247
330
1F
100
AcDbEntity
  8
0
  6
Continuous
 62
     7
370
    25
100
AcDbLine
 10
1.4497
 20
20.9375
 30
0.0
 11
1.4497
 21
-20.375
 31
0.0
  0
LINE
  5
248
330
1F
100
AcDbEntity
  8
0
  6
Continuous
 62
     7
370
    25
100
AcDbLine
 10
-1.5607558037
 20
-0.4317791663
 30
0.0
 11
-1.5612288015
 21
-0.6792787143
 31
0.0
  0
LINE
  5
249
330
1F
100
AcDbEntity
  8
0
  6
Continuous
 62
     7
370
    25
100
AcDbLine
 10
-1.5611141354
 20
-0.6192788239
 30
0.0
 11
-3.0611113961
 21
-0.6164121704
 31
0.0
  0
LINE
  5
24A
330
1F
100
AcDbEntity
  8
0
  6
Continuous
 62
     7
370
    25
100
AcDbLine
 10
-1.8111136788
 20
-0.6188010483
 30
0.0
 11
-1.8107553471
 21
-0.4313013907
 31
0.0
  0
LINE
  5
24B
330
1F
100
AcDbEntity
  8
0
  6
Continuous
 62
     7
370
    25
100
AcDbLine
 10
-2.0611132223
 20
-0.6183232727
 30
0.0
 11
-2.0595652294
 21
0.1916752481
 31
0.0
  0
LINE
  5
24C
330
1F
100
AcDbEntity
  8
0
  6
Continuous
 62
     7
370
    25
100
AcDbLine
 10
-20.7495310985
 20
0.2273937508
 30
0.0
 11
-20.7511937575
 21
-0.6426046604
 31
0.0
  0
LINE
  5
24D
330
1F
100
AcDbEntity
  8
0
  6
Continuous
 62
     7
370
    25
100
AcDbLine
 10
-19.8086075914
 20
0.1655954368
 30
0.0
 11
-21.8096438289
 21
0.1694196289
 31
0.0
  0
LINE
  5
24E
330
1F
100
AcDbEntity
  8
0
  6
Continuous
 62
     7
370
    25
100
AcDbLine
 10
-21.8095291628
 20
0.2294195193
 30
0.0
 11
-21.8111918218
 21
-0.640578892
 31
0.0
  0
LINE
  5
24F
330
1F
100
AcDbEntity
  8
0
  6
Continuous
 62
     7
370
    25
100
AcDbLine
 10
-21.8095291628
 20
0.2294195193
 30
0.0
 11
-2.0595652294
 21
0.1916752481
 31
0.0
  0
LINE
  5
250
330
1F
100
AcDbEntity
  8
0
  6
Continuous
 62
     7
370
    25
100
AcDbLine
 10
-19.8095328151
 20
0.2255973146
 30
0.0
 11
-19.8096474812
 21
0.1655974242
 31
0.0
  0
LINE
  5
251
330
1F
100
AcDbEntity
  8
0
  6
Continuous
 62
     7
370
    25
100
AcDbLine
 10
-19.8100409182
 20
-0.5844031935
 30
0.0
 11
-21.8110771557
 21
-0.5805790015
 31
0.0
  0
LINE
  5
252
330
1F
100
AcDbEntity
  8
0
  6
Continuous
 62
     7
370
    25
100
AcDbLine
 10
-19.8100409182
 20
-0.5844031935
 30
0.0
 11
-19.8086075914
 21
0.1655954368
 31
0.0
  0
LINE
  5
253
330
1F
100
AcDbEntity
  8
0
  6
Continuous
 62
     7
370
    25
100
AcDbLine
 10
-1.5612288015
 20
-0.6792787143
 30
0.0
 11
-21.8111918218
 21
-0.640578892
 31
0.0
  0
LINE
  5
254
330
1F
100
AcDbEntity
  8
0
  6
Continuous
 62
     7
370
    25
100
AcDbLine
 10
-19.811080808
 20
-0.5844012062
 30
0.0
 11
-19.8111954741
 21
-0.6444010966
 31
0.0
  0
LINE
  5
255
330
1F
100
AcDbEntity
  8
0
  6
Continuous
 62
     7
370
    25
100
AcDbLine
 10
-3.0610540631
 20
-0.5864122252
 30
0.0
 11
-19.8110234749
 21
-0.554401261
 31
0.0
  0
LINE
  5
256
330
1F
100
AcDbEntity
  8
0
  6
Continuous
 62
     7
370
    25
100
AcDbLine
 10
-3.0608677306
 20
-0.4889124032
 30
0.0
 11
-3.0612260623
 21
-0.6764120608
 31
0.0
  0
LINE
  5
257
330
1F
100
AcDbEntity
  8
0
  6
Continuous
 62
     7
370
    25
100
AcDbLine
 10
-2.0597372286
 20
0.1016754124
 30
0.0
 11
-19.8097048143
 21
0.135597479
 31
0.0
  0
LINE
  5
258
330
1F
100
AcDbEntity
  8
0
  6
Continuous
 62
     7
370
    25
100
AcDbLine
 10
-2.0608695567
 20
-0.4908235056
 30
0.0
 11
-3.0608677306
 21
-0.4889124032
 31
0.0
  0
LINE
  5
259
330
1F
100
AcDbEntity
  8
0
  6
Continuous
 62
     7
370
    25
100
AcDbLine
 10
-19.8097048143
 20
0.135597479
 30
0.0
 11
-19.8110234749
 21
-0.554401261
 31
0.0
  0
LINE
  5
25A
330
1F
100
AcDbEntity
  8
0
  6
Continuous
 62
     7
370
    25
100
AcDbLine
 10
-1.6862285732
 20
-0.6790398265
 30
0.0
 11
-1.6861139071
 21
-0.6190399361
 31
0.0
  0
LINE
  5
25B
330
1F
100
AcDbEntity
  8
0
  6
Continuous
 62
     7
370
    25
100
AcDbLine
 10
-1.375
 20
21.25
 30
0.0
 11
-1.375
 21
-21.25
 31
0.0
  0
LINE
  5
25C
330
1F
100
AcDbEntity
  8
0
  6
Continuous
 62
     7
370
    25
100
AcDbLine
 10
-1.455980315
 20
20.0
 30
0.0
 11
1.375
 21
20.0
 31
0.0
  0
LINE
  5
25D
330
1F
100
AcDbEntity
  8
0
  6
Continuous
 62
     7
370
    25
100
AcDbLine
 10
1.375
 20
-21.25
 30
0.0
 11
1.375
 21
21.25
 31
0.0
  0
LINE
  5
25E
330
1F
100
AcDbEntity
  8
0
  6
Continuous
 62
     7
370
    25
100
AcDbLine
 10
-1.375
 20
-20.0
 30
0.0
 11
1.375
 21
-20.0
 31
0.0
  0
LINE
  5
25F
330
1F
100
AcDbEntity
  8
0
  6
Continuous
 62
     7
370
    25
100
AcDbLine
 10
-1.375
 20
-21.25
 30
0.0
 11
1.375
 21
-21.25
 31
0.0
  0
LINE
  5
260
330
1F
100
AcDbEntity
  8
0
  6
Continuous
 62
     7
370
    25
100
AcDbLine
 10
-1.375
 20
21.25
 30
0.0
 11
1.375
 21
21.25
 31
0.0
  0
LINE
  5
261
330
1F
100
AcDbEntity
  8
0
  6
Continuous
 62
     7
370
    25
100
AcDbLine
 10
-3.965778304
 20
0.212818255
 30
0.0
 11
-3.9658117483
 21
0.1953182869
 31
0.0
  0
LINE
  5
262
330
1F
100
AcDbEntity
  8
0
  6
Continuous
 62
     7
370
    25
100
AcDbLine
 10
-19.5907497703
 20
0.242679229
 30
0.0
 11
-19.5907832146
 21
0.225179261
 31
0.0
  0
ARC
  5
263
330
1F
100
AcDbEntity
  8
0
  6
Continuous
 62
     7
370
    25
100
AcDbCircle
 10
-5.2481083125
 20
-1.1246996676
 30
0.0
 40
0.1704724409448827
100
AcDbArc
 50
13.448822769
 51
91.6743771564
  0
ARC
  5
264
330
1F
100
AcDbEntity
  8
0
  6
Continuous
 62
     7
370
    25
100
AcDbCircle
 10
-5.750178417
 20
-1.2814958523
 30
0.0
 40
0.1704724409448805
100
AcDbArc
 50
123.0127273793
 51
201.2382817666
  0
ARC
  5
265
330
1F
100
AcDbEntity
  8
0
  6
Continuous
 62
     7
370
    25
100
AcDbCircle
 10
-1.7327519341
 20
-12.3810663129
 30
0.0
 40
0.170472440944878
100
AcDbArc
 50
300.6414761657
 51
13.448822769
  0
ARC
  5
266
330
1F
100
AcDbEntity
  8
0
  6
Continuous
 62
     7
370
    25
100
AcDbCircle
 10
-2.2348220385
 20
-12.5378624977
 30
0.0
 40
0.170472440944885
100
AcDbArc
 50
201.2382817666
 51
274.0456283699
  0
ARC
  5
267
330
1F
100
AcDbEntity
  8
0
  6
Continuous
 62
     7
370
    25
100
AcDbCircle
 10
-21.8640784516
 20
0.1382736021
 30
0.0
 40
0.1562499999999856
100
AcDbArc
 50
179.8905018351
 51
269.8905018351
  0
ARC
  5
268
330
1F
100
AcDbEntity
  8
0
  6
Continuous
 62
     7
370
    25
100
AcDbCircle
 10
-21.7331741847
 20
-0.424477597
 30
0.0
 40
0.1562500000004327
100
AcDbArc
 50
204.8905018351
 51
240.1106473557
  0
ARC
  5
269
330
1F
100
AcDbEntity
  8
0
  6
Continuous
 62
     7
370
    25
100
AcDbCircle
 10
-21.8976017264
 20
-0.0700949627
 30
0.0
 40
0.1562500000008034
100
AcDbArc
 50
179.8905018351
 51
204.890501835
  0
ARC
  5
26A
330
1F
100
AcDbEntity
  8
0
  6
Continuous
 62
     7
370
    25
100
AcDbCircle
 10
-21.8640784516
 20
0.1382736021
 30
0.0
 40
0.1250000000000125
100
AcDbArc
 50
179.8905018351
 51
269.8905018351
  0
ARC
  5
26B
330
1F
100
AcDbEntity
  8
0
  6
Continuous
 62
     7
370
    25
100
AcDbCircle
 10
-21.7331741847
 20
-0.424477597
 30
0.0
 40
0.1874999999994557
100
AcDbArc
 50
204.890501835
 51
245.441024947
  0
ARC
  5
26C
330
1F
100
AcDbEntity
  8
0
  6
Continuous
 62
     7
370
    25
100
AcDbCircle
 10
-21.8976017264
 20
-0.0700949627
 30
0.0
 40
0.1874999999992174
100
AcDbArc
 50
179.890501835
 51
204.8905018351
  0
ARC
  5
26D
330
1F
100
AcDbEntity
  8
0
  6
Continuous
 62
     7
370
    25
100
AcDbCircle
 10
-21.8627645687
 20
0.8257723466
 30
0.0
 40
0.1249999999999806
100
AcDbArc
 50
89.8905018351
 51
179.8905018351
  0
ARC
  5
26E
330
1F
100
AcDbEntity
  8
0
  6
Continuous
 62
     7
370
    25
100
AcDbCircle
 10
-1.5000972529
 20
-0.4119271987
 30
0.0
 40
0.0119807135999687
100
AcDbArc
 50
89.890501835
 51
134.8905018351
  0
ARC
  5
26F
330
1F
100
AcDbEntity
  8
0
  6
Continuous
 62
     7
370
    25
100
AcDbCircle
 10
-1.5419861584
 20
-0.4198343016
 30
0.0
 40
0.0119807136000252
100
AcDbArc
 50
269.8905018349
 51
314.890501835
  0
ARC
  5
270
330
1F
100
AcDbEntity
  8
0
  6
Continuous
 62
     7
370
    25
100
AcDbCircle
 10
-1.7177617501
 20
-0.4194983758
 30
0.0
 40
0.0119807136000277
100
AcDbArc
 50
224.8905018351
 51
269.890501835
  0
ARC
  5
271
330
1F
100
AcDbEntity
  8
0
  6
Continuous
 62
     7
370
    25
100
AcDbCircle
 10
-1.7596201271
 20
-0.4114312231
 30
0.0
 40
0.0119807136000143
100
AcDbArc
 50
44.8905018352
 51
89.8905018353
  0
ARC
  5
272
330
1F
100
AcDbEntity
  8
0
  6
Continuous
 62
     7
370
    25
100
AcDbCircle
 10
-1.425980315
 20
20.97
 30
0.0
 40
0.0300000000000198
100
AcDbArc
 50
90.0
 51
179.9999999999
  0
ARC
  5
273
330
1F
100
AcDbEntity
  8
0
  6
Continuous
 62
     7
370
    25
100
AcDbCircle
 10
-1.425980315
 20
0.655
 30
0.0
 40
0.029999999999998
100
AcDbArc
 50
180.0
 51
270.0
  0
ARC
  5
274
330
1F
100
AcDbEntity
  8
0
  6
Continuous
 62
     7
370
    25
100
AcDbCircle
 10
-21.904073229
 20
0.4680809535
 30
0.0
 40
0.0299999999999415
100
AcDbArc
 50
89.890501835
 51
179.8905018352
  0
ARC
  5
275
330
1F
100
AcDbEntity
  8
0
  6
Continuous
 62
     7
370
    25
100
AcDbCircle
 10
-1.5891103274
 20
0.4292569094
 30
0.0
 40
0.0299999999999994
100
AcDbArc
 50
359.8905018351
 51
89.8905018351
  0
ARC
  5
276
330
1F
100
AcDbEntity
  8
0
  6
Continuous
 62
     7
370
    25
100
AcDbCircle
 10
-1.5892966222
 20
0.3317767725
 30
0.0
 40
0.0299999999999988
100
AcDbArc
 50
269.8905018351
 51
359.8905018351
  0
ARC
  5
277
330
1F
100
AcDbEntity
  8
0
  6
Continuous
 62
     7
370
    25
100
AcDbCircle
 10
-21.9042595239
 20
0.3706008165
 30
0.0
 40
0.0300000000000375
100
AcDbArc
 50
179.8905018351
 51
269.890501835
  0
ARC
  5
278
330
1F
100
AcDbEntity
  8
0
  6
Continuous
 62
     7
370
    25
100
AcDbCircle
 10
0.325
 20
5.8129165125
 30
0.0
 40
0.0468750000000368
100
AcDbArc
 50
21.9078200141
 51
98.0921799859
  0
ARC
  5
279
330
1F
100
AcDbEntity
  8
0
  6
Continuous
 62
     7
370
    25
100
AcDbCircle
 10
0.0
 20
5.9
 30
0.0
 40
0.0468750000000016
100
AcDbArc
 50
51.907820014
 51
128.092179986
  0
ARC
  5
27A
330
1F
100
AcDbEntity
  8
0
  6
Continuous
 62
     7
370
    25
100
AcDbCircle
 10
-0.325
 20
5.8129165125
 30
0.0
 40
0.0468750000000377
100
AcDbArc
 50
81.9078200142
 51
158.0921799858
  0
ARC
  5
27B
330
1F
100
AcDbEntity
  8
0
  6
Continuous
 62
     7
370
    25
100
AcDbCircle
 10
-0.5629165125
 20
5.575
 30
0.0
 40
0.0468749999999703
100
AcDbArc
 50
111.9078200141
 51
188.0921799859
  0
ARC
  5
27C
330
1F
100
AcDbEntity
  8
0
  6
Continuous
 62
     7
370
    25
100
AcDbCircle
 10
-0.65
 20
5.25
 30
0.0
 40
0.0468750000000013
100
AcDbArc
 50
141.9078200142
 51
218.0921799858
  0
ARC
  5
27D
330
1F
100
AcDbEntity
  8
0
  6
Continuous
 62
     7
370
    25
100
AcDbCircle
 10
-0.5629165125
 20
4.925
 30
0.0
 40
0.0468750000000024
100
AcDbArc
 50
171.9078200142
 51
248.0921799858
  0
ARC
  5
27E
330
1F
100
AcDbEntity
  8
0
  6
Continuous
 62
     7
370
    25
100
AcDbCircle
 10
-0.325
 20
4.6870834875
 30
0.0
 40
0.0468749999999912
100
AcDbArc
 50
201.9078200142
 51
278.0921799858
  0
ARC
  5
27F
330
1F
100
AcDbEntity
  8
0
  6
Continuous
 62
     7
370
    25
100
AcDbCircle
 10
0.0
 20
4.6
 30
0.0
 40
0.0468750000000019
100
AcDbArc
 50
231.9078200142
 51
308.0921799858
  0
ARC
  5
280
330
1F
100
AcDbEntity
  8
0
  6
Continuous
 62
     7
370
    25
100
AcDbCircle
 10
0.325
 20
4.6870834875
 30
0.0
 40
0.0468750000000535
100
AcDbArc
 50
261.9078200142
 51
338.0921799858
  0
ARC
  5
281
330
1F
100
AcDbEntity
  8
0
  6
Continuous
 62
     7
370
    25
100
AcDbCircle
 10
0.5629165125
 20
4.925
 30
0.0
 40
0.0468749999999665
100
AcDbArc
 50
291.9078200141
 51
0.0
  0
ARC
  5
282
330
1F
100
AcDbEntity
  8
0
  6
Continuous
 62
     7
370
    25
100
AcDbCircle
 10
0.5629165125
 20
5.575
 30
0.0
 40
0.0468750000000476
100
AcDbArc
 50
351.9078200141
 51
68.0921799859
  0
ARC
  5
283
330
1F
100
AcDbEntity
  8
0
  6
Continuous
 62
     7
370
    25
100
AcDbCircle
 10
-1.4419447291
 20
20.3992435761
 30
0.0
 40
0.0745933466026369
100
AcDbArc
 50
100.8455029117
 51
172.9889583196
  0
ARC
  5
284
330
1F
100
AcDbEntity
  8
0
  6
Continuous
 62
     7
370
    25
100
AcDbCircle
 10
-1.415980315
 20
20.4083484861
 30
0.0
 40
0.1000000000000236
100
AcDbArc
 50
113.5781784782
 51
180.0
  0
ARC
  5
285
330
1F
100
AcDbEntity
  8
0
  6
Continuous
 62
     7
370
    25
100
AcDbCircle
 10
-1.415980315
 20
19.8416515139
 30
0.0
 40
0.0999999999999932
100
AcDbArc
 50
180.0
 51
246.4218215218
  0
ARC
  5
286
330
1F
100
AcDbEntity
  8
0
  6
Continuous
 62
     7
370
    25
100
AcDbCircle
 10
-1.4419447291
 20
19.8507564239
 30
0.0
 40
0.0745933466026378
100
AcDbArc
 50
187.0110416804
 51
259.1544970883
  0
ARC
  5
287
330
1F
100
AcDbEntity
  8
0
  6
Continuous
 62
     7
370
    25
100
AcDbCircle
 10
-1.341345049
 20
0.059147652
 30
0.0
 40
0.0528987464000382
100
AcDbArc
 50
134.9452510279
 51
211.5161418601
  0
ARC
  5
288
330
1F
100
AcDbEntity
  8
0
  6
Continuous
 62
     7
370
    25
100
AcDbCircle
 10
-1.341345049
 20
0.059147652
 30
0.0
 40
0.0628987464000301
100
AcDbArc
 50
134.9452510281
 51
211.51614186
  0
ARC
  5
289
330
1F
100
AcDbEntity
  8
0
  6
Continuous
 62
     7
370
    25
100
AcDbCircle
 10
-1.4706963199
 20
0.0795662476
 30
0.0
 40
0.0628987464000237
100
AcDbArc
 50
134.945251028
 51
217.702342295
  0
ARC
  5
28A
330
1F
100
AcDbEntity
  8
0
  6
Continuous
 62
     7
370
    25
100
AcDbCircle
 10
1.275
 20
20.9375
 30
0.0
 40
0.174699999999983
100
AcDbArc
 50
360.0
 51
55.0815568545
  0
ENDSEC
  0
SECTION
  2
OBJECTS
  0
DICTIONARY
  5
C
330
0
100
AcDbDictionary
281
     1
  3
ACAD_GROUP
350
D
  3
ACAD_LAYOUT
350
1A
  3
ACAD_MLINESTYLE
350
17
  3
ACAD_PLOTSETTINGS
350
19
  3
ACAD_PLOTSTYLENAME
350
E
  3
ACAD_SCALELIST
350
47
  3
DWGPROPS
350
28B
  0
DICTIONARY
  5
D
102
{ACAD_REACTORS
330
C
102
}
330
C
100
AcDbDictionary
281
     1
  0
DICTIONARY
  5
1A
102
{ACAD_REACTORS
330
C
102
}
330
C
100
AcDbDictionary
281
     1
  3
Layout1
350
1E
  3
Layout2
350
26
  3
Model
350
22
  0
DICTIONARY
  5
17
102
{ACAD_REACTORS
330
C
102
}
330
C
100
AcDbDictionary
281
     1
  3
Standard
350
18
  0
DICTIONARY
  5
19
102
{ACAD_REACTORS
330
C
102
}
330
C
100
AcDbDictionary
281
     1
  0
ACDBDICTIONARYWDFLT
  5
E
102
{ACAD_REACTORS
330
C
102
}
330
C
100
AcDbDictionary
281
     1
  3
Normal
350
F
100
AcDbDictionaryWithDefault
340
F
  0
DICTIONARY
  5
47
102
{ACAD_REACTORS
330
C
102
}
330
C
100
AcDbDictionary
281
     1
  3
A0
350
48
  3
A1
350
49
  3
A2
350
4A
  3
A3
350
4B
  3
A4
350
4C
  3
A5
350
4D
  3
A6
350
4E
  3
A7
350
4F
  3
A8
350
50
  3
A9
350
51
  3
B1
350
52
  3
B2
350
53
  3
B3
350
54
  3
B4
350
55
  3
B5
350
56
  3
B6
350
57
  3
B7
350
58
  0
XRECORD
  5
28B
102
{ACAD_REACTORS
330
C
102
}
330
C
100
AcDbXrecord
280
     1
  1
DWGPROPS COOKIE
  2

  3

  4

  6

  7

  8
rmcneal
  9

300
=
301
=
302
=
303
=
304
=
305
=
306
=
307
=
308
=
309
=
 40
0.0
 41
2460900.774052859
 42
2460900.774310405
  1

 90
        0
  0
LAYOUT
  5
1E
102
{ACAD_REACTORS
330
1A
102
}
330
1A
100
AcDbPlotSettings
  1

  2
none_device
  4

  6

 40
0.0
 41
0.0
 42
0.0
 43
0.0
 44
0.0
 45
0.0
 46
0.0
 47
0.0
 48
0.0
 49
0.0
140
0.0
141
0.0
142
1.0
143
1.0
 70
   688
 72
     0
 73
     0
 74
     5
  7

 75
    16
147
1.0
148
0.0
149
0.0
100
AcDbLayout
  1
Layout1
 70
     1
 71
     1
 10
0.0
 20
0.0
 11
12.0
 21
9.0
 12
0.0
 22
0.0
 32
0.0
 14
1.0000000000E+20
 24
1.0000000000E+20
 34
1.0000000000E+20
 15
-1.0000000000E+20
 25
-1.0000000000E+20
 35
-1.0000000000E+20
146
0.0
 13
0.0
 23
0.0
 33
0.0
 16
1.0
 26
0.0
 36
0.0
 17
0.0
 27
1.0
 37
0.0
 76
     0
330
1B
  0
LAYOUT
  5
26
102
{ACAD_REACTORS
330
1A
102
}
330
1A
100
AcDbPlotSettings
  1

  2
none_device
  4

  6

 40
0.0
 41
0.0
 42
0.0
 43
0.0
 44
0.0
 45
0.0
 46
0.0
 47
0.0
 48
0.0
 49
0.0
140
0.0
141
0.0
142
1.0
143
1.0
 70
   688
 72
     0
 73
     0
 74
     5
  7

 75
    16
147
1.0
148
0.0
149
0.0
100
AcDbLayout
  1
Layout2
 70
     1
 71
     2
 10
0.0
 20
0.0
 11
0.0
 21
0.0
 12
0.0
 22
0.0
 32
0.0
 14
0.0
 24
0.0
 34
0.0
 15
0.0
 25
0.0
 35
0.0
146
0.0
 13
0.0
 23
0.0
 33
0.0
 16
1.0
 26
0.0
 36
0.0
 17
0.0
 27
1.0
 37
0.0
 76
     0
330
23
  0
LAYOUT
  5
22
102
{ACAD_REACTORS
330
1A
102
}
330
1A
100
AcDbPlotSettings
  1

  2
none_device
  4
ANSI_A_(11.00_x_8.50_Inches)
  6

 40
6.35
 41
19.05
 42
6.35000508
 43
19.05000254
 44
279.4
 45
215.9
 46
185.2397786413
 47
88.89999873
 48
0.0
 49
0.0
140
0.0
141
0.0
142
0.198
143
1.0
 70
  1696
 72
     0
 73
     0
 74
     0
  7

 75
     0
147
0.5913241897
148
-39.4088153714
149
0.0
100
AcDbLayout
  1
Model
 70
     1
 71
     0
 10
0.0
 20
0.0
 11
12.0
 21
9.0
 12
0.0
 22
0.0
 32
0.0
 14
-22.0851017264
 24
-21.25
 34
0.0
 15
1.4497
 25
21.25
 35
0.0
146
0.0
 13
0.0
 23
0.0
 33
0.0
 16
1.0
 26
0.0
 36
0.0
 17
0.0
 27
1.0
 37
0.0
 76
     0
330
1F
331
29
  0
MLINESTYLE
  5
18
102
{ACAD_REACTORS
330
17
102
}
330
17
100
AcDbMlineStyle
  2
Standard
 70
     0
  3

 62
   256
 51
90.0
 52
90.0
 71
     2
 49
0.5
 62
   256
  6
BYLAYER
 49
-0.5
 62
   256
  6
BYLAYER
  0
ACDBPLACEHOLDER
  5
F
102
{ACAD_REACTORS
330
E
102
}
330
E
  0
SCALE
  5
48
102
{ACAD_REACTORS
330
47
102
}
330
47
100
AcDbScale
 70
     0
300
1:1
140
1.0
141
1.0
290
     1
  0
SCALE
  5
49
102
{ACAD_REACTORS
330
47
102
}
330
47
100
AcDbScale
 70
     0
300
1/128" = 1'-0"
140
0.0078125
141
12.0
290
     0
  0
SCALE
  5
4A
102
{ACAD_REACTORS
330
47
102
}
330
47
100
AcDbScale
 70
     0
300
1/64" = 1'-0"
140
0.015625
141
12.0
290
     0
  0
SCALE
  5
4B
102
{ACAD_REACTORS
330
47
102
}
330
47
100
AcDbScale
 70
     0
300
1/32" = 1'-0"
140
0.03125
141
12.0
290
     0
  0
SCALE
  5
4C
102
{ACAD_REACTORS
330
47
102
}
330
47
100
AcDbScale
 70
     0
300
1/16" = 1'-0"
140
0.0625
141
12.0
290
     0
  0
SCALE
  5
4D
102
{ACAD_REACTORS
330
47
102
}
330
47
100
AcDbScale
 70
     0
300
3/32" = 1'-0"
140
0.09375
141
12.0
290
     0
  0
SCALE
  5
4E
102
{ACAD_REACTORS
330
47
102
}
330
47
100
AcDbScale
 70
     0
300
1/8" = 1'-0"
140
0.125
141
12.0
290
     0
  0
SCALE
  5
4F
102
{ACAD_REACTORS
330
47
102
}
330
47
100
AcDbScale
 70
     0
300
3/16" = 1'-0"
140
0.1875
141
12.0
290
     0
  0
SCALE
  5
50
102
{ACAD_REACTORS
330
47
102
}
330
47
100
AcDbScale
 70
     0
300
1/4" = 1'-0"
140
0.25
141
12.0
290
     0
  0
SCALE
  5
51
102
{ACAD_REACTORS
330
47
102
}
330
47
100
AcDbScale
 70
     0
300
3/8" = 1'-0"
140
0.375
141
12.0
290
     0
  0
SCALE
  5
52
102
{ACAD_REACTORS
330
47
102
}
330
47
100
AcDbScale
 70
     0
300
1/2" = 1'-0"
140
0.5
141
12.0
290
     0
  0
SCALE
  5
53
102
{ACAD_REACTORS
330
47
102
}
330
47
100
AcDbScale
 70
     0
300
3/4" = 1'-0"
140
0.75
141
12.0
290
     0
  0
SCALE
  5
54
102
{ACAD_REACTORS
330
47
102
}
330
47
100
AcDbScale
 70
     0
300
1" = 1'-0"
140
1.0
141
12.0
290
     0
  0
SCALE
  5
55
102
{ACAD_REACTORS
330
47
102
}
330
47
100
AcDbScale
 70
     0
300
1-1/2" = 1'-0"
140
1.5
141
12.0
290
     0
  0
SCALE
  5
56
102
{ACAD_REACTORS
330
47
102
}
330
47
100
AcDbScale
 70
     0
300
3" = 1'-0"
140
3.0
141
12.0
290
     0
  0
SCALE
  5
57
102
{ACAD_REACTORS
330
47
102
}
330
47
100
AcDbScale
 70
     0
300
6" = 1'-0"
140
6.0
141
12.0
290
     0
  0
SCALE
  5
58
102
{ACAD_REACTORS
330
47
102
}
330
47
100
AcDbScale
 70
     0
300
1'-0" = 1'-0"
140
12.0
141
12.0
290
     0
  0
ENDSEC
  0
EOF
