  0
SECTION
  2
HEADER
  9
$ACADVER
  1
AC1015
  9
$ACADMAINTVER
 70
     6
  9
$DWGCODEPAGE
  3
ANSI_1252
  9
$INSBASE
 10
0.0
 20
0.0
 30
0.0
  9
$EXTMIN
 10
-12.0
 20
-22.085101384
 30
0.0
  9
$EXTMAX
 10
12.0
 20
1.4497
 30
0.0
  9
$LIMMIN
 10
0.0
 20
0.0
  9
$LIMMAX
 10
12.0
 20
9.0
  9
$ORTHOMODE
 70
     0
  9
$REGENMODE
 70
     1
  9
$FILLMODE
 70
     1
  9
$QTEXTMODE
 70
     0
  9
$MIRRTEXT
 70
     1
  9
$LTSCALE
 40
1.0
  9
$ATTMODE
 70
     1
  9
$TEXTSIZE
 40
0.1388888889
  9
$TRACEWID
 40
0.05
  9
$TEXTSTYLE
  7
Standard
  9
$CLAYER
  8
0
  9
$CELTYPE
  6
ByLayer
  9
$CECOLOR
 62
   256
  9
$CELTSCALE
 40
1.0
  9
$DISPSILH
 70
     0
  9
$DIMSCALE
 40
1.0
  9
$DIMASZ
 40
0.075
  9
$DIMEXO
 40
0.0
  9
$DIMDLI
 40
0.38
  9
$DIMRND
 40
0.0
  9
$DIMDLE
 40
0.0
  9
$DIMEXE
 40
0.05
  9
$DIMTP
 40
0.0
  9
$DIMTM
 40
0.0
  9
$DIMTXT
 40
0.1388888889
  9
$DIMCEN
 40
0.09
  9
$DIMTSZ
 40
0.0
  9
$DIMTOL
 70
     0
  9
$DIMLIM
 70
     0
  9
$DIMTIH
 70
     1
  9
$DIMTOH
 70
     1
  9
$DIMSE1
 70
     0
  9
$DIMSE2
 70
     0
  9
$DIMTAD
 70
     0
  9
$DIMZIN
 70
     1
  9
$DIMBLK
  1

  9
$DIMASO
 70
     1
  9
$DIMSHO
 70
     1
  9
$DIMPOST
  1

  9
$DIMAPOST
  1

  9
$DIMALT
 70
     0
  9
$DIMALTD
 70
     2
  9
$DIMALTF
 40
25.4
  9
$DIMLFAC
 40
1.0
  9
$DIMTOFL
 70
     0
  9
$DIMTVP
 40
0.0
  9
$DIMTIX
 70
     0
  9
$DIMSOXD
 70
     0
  9
$DIMSAH
 70
     0
  9
$DIMBLK1
  1

  9
$DIMBLK2
  1

  9
$DIMSTYLE
  2
Standard
  9
$DIMCLRD
 70
     0
  9
$DIMCLRE
 70
     0
  9
$DIMCLRT
 70
     0
  9
$DIMTFAC
 40
1.0
  9
$DIMGAP
 40
0.08
  9
$DIMJUST
 70
     0
  9
$DIMSD1
 70
     0
  9
$DIMSD2
 70
     0
  9
$DIMTOLJ
 70
     1
  9
$DIMTZIN
 70
     1
  9
$DIMALTZ
 70
     0
  9
$DIMALTTZ
 70
     0
  9
$DIMUPT
 70
     0
  9
$DIMDEC
 70
     3
  9
$DIMTDEC
 70
     3
  9
$DIMALTU
 70
     2
  9
$DIMALTTD
 70
     2
  9
$DIMTXSTY
  7
Standard
  9
$DIMAUNIT
 70
     0
  9
$DIMADEC
 70
     1
  9
$DIMALTRND
 40
0.0
  9
$DIMAZIN
 70
     0
  9
$DIMDSEP
 70
    46
  9
$DIMATFIT
 70
     3
  9
$DIMFRAC
 70
     0
  9
$DIMLDRBLK
  1

  9
$DIMLUNIT
 70
     2
  9
$DIMLWD
 70
    -2
  9
$DIMLWE
 70
    -2
  9
$DIMTMOVE
 70
     0
  9
$LUNITS
 70
     2
  9
$LUPREC
 70
     6
  9
$SKETCHINC
 40
0.1
  9
$FILLETRAD
 40
0.0
  9
$AUNITS
 70
     0
  9
$AUPREC
 70
     1
  9
$MENU
  1
.
  9
$ELEVATION
 40
0.0
  9
$PELEVATION
 40
0.0
  9
$THICKNESS
 40
0.0
  9
$LIMCHECK
 70
     0
  9
$CHAMFERA
 40
0.0
  9
$CHAMFERB
 40
0.0
  9
$CHAMFERC
 40
0.0
  9
$CHAMFERD
 40
0.0
  9
$SKPOLY
 70
     0
  9
$TDCREATE
 40
2460900.56570397
  9
$TDUCREATE
 40
2460900.774037304
  9
$TDUPDATE
 40
2460900.565976517
  9
$TDUUPDATE
 40
2460900.77430985
  9
$TDINDWG
 40
0.0000000116
  9
$TDUSRTIMER
 40
0.0000000116
  9
$USRTIMER
 70
     1
  9
$ANGBASE
 50
0.0
  9
$ANGDIR
 70
     0
  9
$PDMODE
 70
     0
  9
$PDSIZE
 40
-1.0
  9
$PLINEWID
 40
0.0
  9
$SPLFRAME
 70
     0
  9
$SPLINETYPE
 70
     6
  9
$SPLINESEGS
 70
     8
  9
$HANDSEED
  5
23D
  9
$SURFTAB1
 70
     6
  9
$SURFTAB2
 70
     6
  9
$SURFTYPE
 70
     6
  9
$SURFU
 70
     6
  9
$SURFV
 70
     6
  9
$UCSBASE
  2

  9
$UCSNAME
  2

  9
$UCSORG
 10
0.0
 20
0.0
 30
0.0
  9
$UCSXDIR
 10
1.0
 20
0.0
 30
0.0
  9
$UCSYDIR
 10
0.0
 20
1.0
 30
0.0
  9
$UCSORTHOREF
  2

  9
$UCSORTHOVIEW
 70
     0
  9
$UCSORGTOP
 10
0.0
 20
0.0
 30
0.0
  9
$UCSORGBOTTOM
 10
0.0
 20
0.0
 30
0.0
  9
$UCSORGLEFT
 10
0.0
 20
0.0
 30
0.0
  9
$UCSORGRIGHT
 10
0.0
 20
0.0
 30
0.0
  9
$UCSORGFRONT
 10
0.0
 20
0.0
 30
0.0
  9
$UCSORGBACK
 10
0.0
 20
0.0
 30
0.0
  9
$PUCSBASE
  2

  9
$PUCSNAME
  2

  9
$PUCSORG
 10
0.0
 20
0.0
 30
0.0
  9
$PUCSXDIR
 10
1.0
 20
0.0
 30
0.0
  9
$PUCSYDIR
 10
0.0
 20
1.0
 30
0.0
  9
$PUCSORTHOREF
  2

  9
$PUCSORTHOVIEW
 70
     0
  9
$PUCSORGTOP
 10
0.0
 20
0.0
 30
0.0
  9
$PUCSORGBOTTOM
 10
0.0
 20
0.0
 30
0.0
  9
$PUCSORGLEFT
 10
0.0
 20
0.0
 30
0.0
  9
$PUCSORGRIGHT
 10
0.0
 20
0.0
 30
0.0
  9
$PUCSORGFRONT
 10
0.0
 20
0.0
 30
0.0
  9
$PUCSORGBACK
 10
0.0
 20
0.0
 30
0.0
  9
$USERI1
 70
     0
  9
$USERI2
 70
     0
  9
$USERI3
 70
     0
  9
$USERI4
 70
     0
  9
$USERI5
 70
     0
  9
$USERR1
 40
0.0
  9
$USERR2
 40
0.0
  9
$USERR3
 40
0.0
  9
$USERR4
 40
0.0
  9
$USERR5
 40
0.0
  9
$WORLDVIEW
 70
     1
  9
$SHADEDGE
 70
     3
  9
$SHADEDIF
 70
    70
  9
$TILEMODE
 70
     1
  9
$MAXACTVP
 70
    64
  9
$PINSBASE
 10
0.0
 20
0.0
 30
0.0
  9
$PLIMCHECK
 70
     0
  9
$PEXTMIN
 10
1.0000000000E+20
 20
1.0000000000E+20
 30
1.0000000000E+20
  9
$PEXTMAX
 10
-1.0000000000E+20
 20
-1.0000000000E+20
 30
-1.0000000000E+20
  9
$PLIMMIN
 10
0.0
 20
0.0
  9
$PLIMMAX
 10
12.0
 20
9.0
  9
$UNITMODE
 70
     0
  9
$VISRETAIN
 70
     1
  9
$PLINEGEN
 70
     0
  9
$PSLTSCALE
 70
     1
  9
$TREEDEPTH
 70
  3020
  9
$CMLSTYLE
  2
Standard
  9
$CMLJUST
 70
     0
  9
$CMLSCALE
 40
1.0
  9
$PROXYGRAPHICS
 70
     1
  9
$MEASUREMENT
 70
     0
  9
$CELWEIGHT
370
    -1
  9
$ENDCAPS
280
     0
  9
$JOINSTYLE
280
     0
  9
$LWDISPLAY
290
     1
  9
$INSUNITS
 70
     1
  9
$HYPERLINKBASE
  1

  9
$STYLESHEET
  1

  9
$XEDIT
290
     1
  9
$CEPSNTYPE
380
     0
  9
$PSTYLEMODE
290
     1
  9
$FINGERPRINTGUID
  2
{21ba7695-2e0e-4039-a9bc-00a682262155}
  9
$VERSIONGUID
  2
{FAEB1C32-E019-11D5-929B-00C0DF256EC4}
  9
$EXTNAMES
290
     1
  9
$PSVPSCALE
 40
0.0
  9
$OLESTARTUP
290
     0
  0
ENDSEC
  0
SECTION
  2
CLASSES
  0
CLASS
  1
ACDBDICTIONARYWDFLT
  2
AcDbDictionaryWithDefault
  3
ObjectDBX Classes
 90
        0
280
     0
281
     0
  0
CLASS
  1
VISUALSTYLE
  2
AcDbVisualStyle
  3
ObjectDBX Classes
 90
     4095
280
     0
281
     0
  0
CLASS
  1
MATERIAL
  2
AcDbMaterial
  3
ObjectDBX Classes
 90
     1153
280
     0
281
     0
  0
CLASS
  1
SCALE
  2
AcDbScale
  3
ObjectDBX Classes
 90
     1153
280
     0
281
     0
  0
CLASS
  1
TABLESTYLE
  2
AcDbTableStyle
  3
ObjectDBX Classes
 90
     4095
280
     0
281
     0
  0
CLASS
  1
MLEADERSTYLE
  2
AcDbMLeaderStyle
  3
ACDB_MLEADERSTYLE_CLASS
 90
     4095
280
     0
281
     0
  0
CLASS
  1
SUN
  2
AcDbSun
  3
SCENEOE
 90
     1153
280
     0
281
     0
  0
CLASS
  1
ACDBPLACEHOLDER
  2
AcDbPlaceHolder
  3
ObjectDBX Classes
 90
        0
280
     0
281
     0
  0
CLASS
  1
LAYOUT
  2
AcDbLayout
  3
ObjectDBX Classes
 90
        0
280
     0
281
     0
  0
ENDSEC
  0
SECTION
  2
TABLES
  0
TABLE
  2
VPORT
  5
8
330
0
100
AcDbSymbolTable
 70
     1
  0
VPORT
  5
29
330
8
100
AcDbSymbolTableRecord
100
AcDbViewportTableRecord
  2
*Active
 70
     0
 10
0.0
 20
0.0
 11
1.0
 21
1.0
 12
0.0
 22
-10.317700692
 13
0.0
 23
0.0
 14
0.5
 24
0.5
 15
0.5
 25
0.5
 16
0.0
 26
0.0
 36
1.0
 17
0.0
 27
0.0
 37
0.0
 40
24.0054974117
 41
1.0197664135
 42
50.0
 43
0.0
 44
0.0
 50
0.0
 51
0.0
 71
     0
 72
   100
 73
     1
 74
     3
 75
     0
 76
     0
 77
     0
 78
     0
281
     0
 65
     1
110
0.0
120
0.0
130
0.0
111
1.0
121
0.0
131
0.0
112
0.0
122
1.0
132
0.0
 79
     0
146
0.0
  0
ENDTAB
  0
TABLE
  2
LTYPE
  5
5
330
0
100
AcDbSymbolTable
 70
     6
  0
LTYPE
  5
14
330
5
100
AcDbSymbolTableRecord
100
AcDbLinetypeTableRecord
  2
ByBlock
 70
     0
  3

 72
    65
 73
     0
 40
0.0
  0
LTYPE
  5
15
330
5
100
AcDbSymbolTableRecord
100
AcDbLinetypeTableRecord
  2
ByLayer
 70
     0
  3

 72
    65
 73
     0
 40
0.0
  0
LTYPE
  5
16
330
5
100
AcDbSymbolTableRecord
100
AcDbLinetypeTableRecord
  2
Continuous
 70
     0
  3
Solid line
 72
    65
 73
     0
 40
0.0
  0
LTYPE
  5
5E
330
5
100
AcDbSymbolTableRecord
100
AcDbLinetypeTableRecord
  2
HIDDEN
 70
     0
  3
Hidden __ __ __ __ __ __ __ __ __ __ __ __ __ __
 72
    65
 73
     2
 40
0.075
 49
0.05
 74
     0
 49
-0.025
 74
     0
  0
LTYPE
  5
5F
330
5
100
AcDbSymbolTableRecord
100
AcDbLinetypeTableRecord
  2
PHANTOM
 70
     0
  3
Phantom ______  __  __  ______  __  __  ______
 72
    65
 73
     6
 40
0.5
 49
0.25
 74
     0
 49
-0.05
 74
     0
 49
0.05
 74
     0
 49
-0.05
 74
     0
 49
0.05
 74
     0
 49
-0.05
 74
     0
  0
LTYPE
  5
60
330
5
100
AcDbSymbolTableRecord
100
AcDbLinetypeTableRecord
  2
CENTER
 70
     0
  3
Center ____ _ ____ _ ____ _ ____ _ ____ _ ____
 72
    65
 73
     4
 40
0.4
 49
0.25
 74
     0
 49
-0.05
 74
     0
 49
0.05
 74
     0
 49
-0.05
 74
     0
  0
LTYPE
  5
61
330
5
100
AcDbSymbolTableRecord
100
AcDbLinetypeTableRecord
  2
CENTERX2
 70
     0
  3
Center (2x) ________  __  ________  __  _____
 72
    65
 73
     4
 40
0.8
 49
0.5
 74
     0
 49
-0.1
 74
     0
 49
0.1
 74
     0
 49
-0.1
 74
     0
  0
LTYPE
  5
62
330
5
100
AcDbSymbolTableRecord
100
AcDbLinetypeTableRecord
  2
DOT2
 70
     0
  3
Dot (.5x) ........................................
 72
    65
 73
     2
 40
0.025
 49
0.0
 74
     0
 49
-0.025
 74
     0
  0
ENDTAB
  0
TABLE
  2
LAYER
  5
2
330
0
100
AcDbSymbolTable
 70
     1
  0
LAYER
  5
10
330
2
100
AcDbSymbolTableRecord
100
AcDbLayerTableRecord
  2
0
 70
     0
 62
     7
  6
Continuous
370
    -3
390
F
  0
ENDTAB
  0
TABLE
  2
STYLE
  5
3
330
0
100
AcDbSymbolTable
 70
     1
  0
STYLE
  5
11
330
3
100
AcDbSymbolTableRecord
100
AcDbTextStyleTableRecord
  2
Standard
 70
     0
 40
0.0
 41
1.0
 50
0.0
 71
     0
 42
0.1388888889
  3
txt
  4

  0
ENDTAB
  0
TABLE
  2
VIEW
  5
6
330
0
100
AcDbSymbolTable
 70
     0
  0
ENDTAB
  0
TABLE
  2
UCS
  5
7
330
0
100
AcDbSymbolTable
 70
     0
  0
ENDTAB
  0
TABLE
  2
APPID
  5
9
330
0
100
AcDbSymbolTable
 70
     1
  0
APPID
  5
12
330
9
100
AcDbSymbolTableRecord
100
AcDbRegAppTableRecord
  2
ACAD
 70
     0
  0
ENDTAB
  0
TABLE
  2
DIMSTYLE
  5
A
330
0
100
AcDbSymbolTable
 70
     1
100
AcDbDimStyleTable
  0
DIMSTYLE
105
27
330
A
100
AcDbSymbolTableRecord
100
AcDbDimStyleTableRecord
  2
Standard
 70
     0
178
     0
340
11
  0
ENDTAB
  0
TABLE
  2
BLOCK_RECORD
  5
1
330
0
100
AcDbSymbolTable
 70
     1
  0
BLOCK_RECORD
  5
1F
330
1
100
AcDbSymbolTableRecord
100
AcDbBlockTableRecord
  2
*Model_Space
340
22
  0
BLOCK_RECORD
  5
1B
330
1
100
AcDbSymbolTableRecord
100
AcDbBlockTableRecord
  2
*Paper_Space
340
1E
  0
BLOCK_RECORD
  5
23
330
1
100
AcDbSymbolTableRecord
100
AcDbBlockTableRecord
  2
*Paper_Space0
340
26
  0
ENDTAB
  0
ENDSEC
  0
SECTION
  2
BLOCKS
  0
BLOCK
  5
20
330
1F
100
AcDbEntity
  8
0
100
AcDbBlockBegin
  2
*Model_Space
 70
     0
 10
0.0
 20
0.0
 30
0.0
  3
*Model_Space
  1

  0
ENDBLK
  5
21
330
1F
100
AcDbEntity
  8
0
100
AcDbBlockEnd
  0
BLOCK
  5
1C
330
1B
100
AcDbEntity
 67
     1
  8
0
100
AcDbBlockBegin
  2
*Paper_Space
 70
     0
 10
0.0
 20
0.0
 30
0.0
  3
*Paper_Space
  1

  0
ENDBLK
  5
1D
330
1B
100
AcDbEntity
 67
     1
  8
0
100
AcDbBlockEnd
  0
BLOCK
  5
24
330
23
100
AcDbEntity
  8
0
100
AcDbBlockBegin
  2
*Paper_Space0
 70
     0
 10
0.0
 20
0.0
 30
0.0
  3
*Paper_Space0
  1

  0
ENDBLK
  5
25
330
23
100
AcDbEntity
  8
0
100
AcDbBlockEnd
  0
ENDSEC
  0
SECTION
  2
ENTITIES
  0
LWPOLYLINE
  5
63
330
1F
100
AcDbEntity
  8
0
  6
Continuous
 62
     7
100
AcDbPolyline
 90
       17
 70
   128
 43
0.0
 10
9.9226877008
 20
0.1210788473
 10
9.8996026792
 20
0.1633894524
 10
9.8618335516
 20
0.1937793114
 10
9.8151303254
 20
0.2076218437
 10
9.7666031432
 20
0.2028096493
 10
9.7236398288
 20
0.1800753411
 10
9.6927811572
 20
0.1428800114
 10
9.6787250815
 20
0.0968863121
 10
9.6836115118
 20
0.0490963669
 10
9.7066965334
 20
0.0067857617
 10
9.744465661
 20
-0.0236040973
 10
9.7911688872
 20
-0.0374466296
 10
9.8396960694
 20
-0.0326344352
 10
9.8826593838
 20
-0.009900127
 10
9.9135180554
 20
0.0272952027
 10
9.9275741311
 20
0.073288902
 10
9.9226877008
 20
0.1210788473
  0
SPLINE
  5
64
330
1F
100
AcDbEntity
  8
0
  6
Continuous
 62
     7
370
    25
100
AcDbSpline
210
0.0
220
0.0
230
1.0
 70
     8
 71
     3
 72
    13
 73
     9
 74
     0
 42
0.00000001
 43
0.00000001
 40
0.0
 40
0.0
 40
0.0
 40
0.0
 40
0.202637019169628
 40
0.4282517356103969
 40
0.6228453660616143
 40
0.793570629339804
 40
0.9416023029557116
 40
1.0
 40
1.0
 40
1.0
 40
1.0
 10
-8.929569027374017
 20
-21.8622338060419
 30
0.0
 10
-8.929755710942333
 20
-21.87254820435411
 30
0.0
 10
-8.93015024676046
 20
-21.89434658550419
 30
0.0
 10
-8.943045529135151
 20
-21.92383141347815
 30
0.0
 10
-8.960756020421309
 20
-21.94807853104714
 30
0.0
 10
-8.980668782595972
 20
-21.96492179916982
 30
0.0
 10
-8.997142620748253
 20
-21.97483745688299
 30
0.0
 10
-9.007005950575993
 20
-21.97823487602853
 30
0.0
 10
-9.009796230589375
 20
-21.9791959866174
 30
0.0
  0
SPLINE
  5
65
330
1F
100
AcDbEntity
  8
0
  6
Continuous
 62
     7
370
    25
100
AcDbSpline
210
0.0
220
0.0
230
1.0
 70
     8
 71
     3
 72
    13
 73
     9
 74
     0
 42
0.00000001
 43
0.00000001
 40
0.0
 40
0.0
 40
0.0
 40
0.0
 40
0.0363330293494398
 40
0.2346549451254617
 40
0.4713347192986693
 40
0.6960038810213842
 40
0.9400590264056509
 40
1.0
 40
1.0
 40
1.0
 40
1.0
 10
9.00991422584924
 20
-21.97913120377431
 30
0.0
 10
9.008152553653389
 20
-21.97862611968754
 30
0.0
 10
8.996774887110075
 20
-21.97536406087258
 30
0.0
 10
8.976364434634563
 20
-21.96225540613934
 30
0.0
 10
8.952102944277854
 20
-21.93893176698688
 30
0.0
 10
8.935394760655289
 20
-21.90735110939345
 30
0.0
 10
8.927247936670554
 20
-21.88088506556107
 30
0.0
 10
8.92906417153502
 20
-21.86561344244412
 30
0.0
 10
8.929422290863704
 20
-21.862602233087
 30
0.0
  0
SPLINE
  5
6D
330
1F
100
AcDbEntity
  8
0
  6
Continuous
 62
     7
370
    25
100
AcDbSpline
210
0.0
220
0.0
230
1.0
 70
     8
 71
     3
 72
    12
 73
     8
 74
     0
 42
0.00000001
 43
0.00000001
 40
0.0
 40
0.0
 40
0.0
 40
0.0
 40
0.2258381328793544
 40
0.4606963753703984
 40
0.6274689980129207
 40
0.8073993009605839
 40
1.0
 40
1.0
 40
1.0
 40
1.0
 10
-9.051971963208274
 20
-21.98741636457748
 30
0.0
 10
-9.035566677981583
 20
-21.98528828479149
 30
0.0
 10
-9.002100870659794
 20
-21.98094712844464
 30
0.0
 10
-8.962179464250653
 20
-21.95316707936061
 30
0.0
 10
-8.930517544465266
 20
-21.92262159612205
 30
0.0
 10
-8.9017993712867
 20
-21.89281708427857
 30
0.0
 10
-8.879302049469896
 20
-21.8726506424902
 30
0.0
 10
-8.86767080298217
 20
-21.86222447456093
 30
0.0
  0
SPLINE
  5
6E
330
1F
100
AcDbEntity
  8
0
  6
Continuous
 62
     7
370
    25
100
AcDbSpline
210
0.0
220
0.0
230
1.0
 70
     8
 71
     3
 72
    12
 73
     8
 74
     0
 42
0.00000001
 43
0.00000001
 40
0.0
 40
0.0
 40
0.0
 40
0.0
 40
0.1667017100169875
 40
0.3321492120643882
 40
0.4972368530716022
 40
0.7475266050133917
 40
1.0
 40
1.0
 40
1.0
 40
1.0
 10
-8.86767080298217
 20
-21.86222447456093
 30
0.0
 10
-8.875239762562604
 20
-21.8754306278959
 30
0.0
 10
-8.890320735400449
 20
-21.90174357588046
 30
0.0
 10
-8.915994192274022
 20
-21.93912217268108
 30
0.0
 10
-8.951816430174185
 20
-21.97723255832098
 30
0.0
 10
-9.002358469078379
 20
-22.01096328327557
 30
0.0
 10
-9.044555233746962
 20
-22.01605552152286
 30
0.0
 10
-9.065745252344023
 20
-22.01861269916452
 30
0.0
  0
SPLINE
  5
6F
330
1F
100
AcDbEntity
  8
0
  6
Continuous
 62
     7
370
    25
100
AcDbSpline
210
0.0
220
0.0
230
1.0
 70
     8
 71
     3
 72
    12
 73
     8
 74
     0
 42
0.00000001
 43
0.00000001
 40
0.0
 40
0.0
 40
0.0
 40
0.0
 40
0.2524733924426623
 40
0.5027631418624693
 40
0.6678446490819255
 40
0.833292205861716
 40
1.0
 40
1.0
 40
1.0
 40
1.0
 10
9.065745252344152
 20
-22.01861269916455
 30
0.0
 10
9.044555234766552
 20
-22.01605552130868
 30
0.0
 10
9.002358472128067
 20
-22.01096328263482
 30
0.0
 10
8.951816883881301
 20
-21.97723287020976
 30
0.0
 10
8.915994935461802
 20
-21.93912300544687
 30
0.0
 10
8.890321272628782
 20
-21.90174455819779
 30
0.0
 10
8.875240032877057
 20
-21.87543111456343
 30
0.0
 10
8.867670802982278
 20
-21.86222447456097
 30
0.0
  0
SPLINE
  5
70
330
1F
100
AcDbEntity
  8
0
  6
Continuous
 62
     7
370
    25
100
AcDbSpline
210
0.0
220
0.0
230
1.0
 70
     8
 71
     3
 72
    12
 73
     8
 74
     0
 42
0.00000001
 43
0.00000001
 40
0.0
 40
0.0
 40
0.0
 40
0.0
 40
0.1925939926764174
 40
0.372524852992918
 40
0.5393036300524262
 40
0.7741618697789846
 40
1.0
 40
1.0
 40
1.0
 40
1.0
 10
8.867670802982278
 20
-21.86222447456096
 30
0.0
 10
8.879301652592398
 20
-21.87265028400222
 30
0.0
 10
8.901798618780086
 20
-21.89281640172721
 30
0.0
 10
8.930516875659215
 20
-21.92262086709342
 30
0.0
 10
8.962179070034844
 20
-21.95316681822917
 30
0.0
 10
9.002100871347281
 20
-21.98094712533785
 30
0.0
 10
9.035566678207823
 20
-21.98528828376948
 30
0.0
 10
9.051971963208402
 20
-21.98741636457745
 30
0.0
  0
SPLINE
  5
72
330
1F
100
AcDbEntity
  8
0
  6
Continuous
 62
     7
370
    25
100
AcDbSpline
210
0.0
220
0.0
230
1.0
 70
     8
 71
     3
 72
    16
 73
    12
 74
     0
 42
0.00000001
 43
0.00000001
 40
0.0
 40
0.0
 40
0.0
 40
0.0
 40
0.1256760229507607
 40
0.2506347224845583
 40
0.376290093678717
 40
0.5012089774633164
 40
0.6001127540190238
 40
0.6995397557593359
 40
0.7990641726042945
 40
0.8979879047759988
 40
0.9999999999999999
 40
0.9999999999999999
 40
0.9999999999999999
 40
0.9999999999999999
 10
-9.16957880697202
 20
-22.05185024570345
 30
0.0
 10
-9.148195673856137
 20
-22.05085992726217
 30
0.0
 10
-9.105551456538327
 20
-22.04888494283892
 30
0.0
 10
-9.03882050568644
 20
-22.03614765179968
 30
0.0
 10
-8.971156260370183
 20
-22.01901985241597
 30
0.0
 10
-8.907310416129574
 20
-21.99943357639142
 30
0.0
 10
-8.847808944505768
 20
-21.9793037805767
 30
0.0
 10
-8.792693808833159
 20
-21.95947990921043
 30
0.0
 10
-8.737377378687537
 20
-21.93875192928459
 30
0.0
 10
-8.681452819923658
 20
-21.91725726063554
 30
0.0
 10
-8.64400944027576
 20
-21.90268858571002
 30
0.0
 10
-8.624999999999947
 20
-21.89529228872779
 30
0.0
  0
SPLINE
  5
73
330
1F
100
AcDbEntity
  8
0
  6
Continuous
 62
     7
370
    25
100
AcDbSpline
210
0.0
220
0.0
230
1.0
 70
     8
 71
     3
 72
    15
 73
    11
 74
     0
 42
0.00000001
 43
0.00000001
 40
0.0
 40
0.0
 40
0.0
 40
0.0
 40
0.1245854022727503
 40
0.2487185903905764
 40
0.3723223054419936
 40
0.4960607981190306
 40
0.6207656087849261
 40
0.7466226407303949
 40
0.8724283458451624
 40
1.0
 40
1.0
 40
1.0
 40
1.0
 10
-8.624999999999947
 20
-21.89529228872779
 30
0.0
 10
-8.647639040287109
 20
-21.9062039066483
 30
0.0
 10
-8.692834946752068
 20
-21.92798753601868
 30
0.0
 10
-8.760346774693716
 20
-21.95991296514342
 30
0.0
 10
-8.827406540432294
 20
-21.99035399065972
 30
0.0
 10
-8.894080529935515
 20
-22.01858746071006
 30
0.0
 10
-8.960449246682224
 20
-22.04379828354001
 30
0.0
 10
-9.026046480140764
 20
-22.06436329699178
 30
0.0
 10
-9.090825591597373
 20
-22.0796337588231
 30
0.0
 10
-9.131886949072044
 20
-22.08197267115644
 30
0.0
 10
-9.152560719254142
 20
-22.08315027801187
 30
0.0
  0
SPLINE
  5
75
330
1F
100
AcDbEntity
  8
0
  6
Continuous
 62
     7
370
    25
100
AcDbSpline
210
0.0
220
0.0
230
1.0
 70
     8
 71
     3
 72
    15
 73
    11
 74
     0
 42
0.00000001
 43
0.00000001
 40
0.0
 40
0.0
 40
0.0
 40
0.0
 40
0.1275716541548367
 40
0.2533773592696093
 40
0.3792343912150817
 40
0.5039392018809775
 40
0.6276776945580181
 40
0.7512814096094369
 40
0.8754145977272665
 40
1.0
 40
1.0
 40
1.0
 40
1.0
 10
9.152560719254248
 20
-22.08315027801186
 30
0.0
 10
9.131886949072152
 20
-22.08197267115643
 30
0.0
 10
9.090825591597483
 20
-22.07963375882311
 30
0.0
 10
9.026046480140872
 20
-22.06436329699177
 30
0.0
 10
8.960449246682332
 20
-22.04379828354
 30
0.0
 10
8.894080529935625
 20
-22.01858746071005
 30
0.0
 10
8.827406540432408
 20
-21.99035399065972
 30
0.0
 10
8.760346774693827
 20
-21.95991296514343
 30
0.0
 10
8.692834946752187
 20
-21.92798753601867
 30
0.0
 10
8.647639040287219
 20
-21.90620390664832
 30
0.0
 10
8.625000000000055
 20
-21.89529228872783
 30
0.0
  0
SPLINE
  5
79
330
1F
100
AcDbEntity
  8
0
  6
Continuous
 62
     7
370
    25
100
AcDbSpline
210
0.0
220
0.0
230
1.0
 70
     8
 71
     3
 72
    15
 73
    11
 74
     0
 42
0.00000001
 43
0.00000001
 40
0.0
 40
0.0
 40
0.0
 40
0.0
 40
0.1253981707174933
 40
0.2502923579118269
 40
0.3745507810062046
 40
0.4987731365772742
 40
0.6236964781712645
 40
0.7493563334568368
 40
0.874319492220879
 40
1.0
 40
1.0
 40
1.0
 40
1.0
 10
8.625000000000053
 20
-21.89529228872782
 30
0.0
 10
8.648367835133376
 20
-21.90438475608282
 30
0.0
 10
8.69500958852857
 20
-21.92253314756649
 30
0.0
 10
8.76468426526594
 20
-21.94913258420444
 30
0.0
 10
8.833888426627087
 20
-21.97449480770868
 30
0.0
 10
8.902687911418504
 20
-21.99801614477231
 30
0.0
 10
8.971155688646093
 20
-22.01901950541403
 30
0.0
 10
9.038820657549737
 20
-22.03614774397137
 30
0.0
 10
9.105551418406819
 20
-22.04888491969526
 30
0.0
 10
9.148195661121477
 20
-22.05085991953293
 30
0.0
 10
9.169578806972126
 20
-22.05185024570348
 30
0.0
  0
LWPOLYLINE
  5
7D
330
1F
100
AcDbEntity
  8
0
  6
Continuous
 62
     7
370
    25
100
AcDbPolyline
 90
        9
 70
   128
 43
0.0
 10
-8.625
 20
-21.7390425741
 10
-8.6556349566
 20
-21.7390434711
 10
-8.6862411556
 20
-21.7390461612
 10
-8.7167898662
 20
-21.739050642
 10
-8.7472524117
 20
-21.7390569092
 10
-8.7776001964
 20
-21.7390649569
 10
-8.807804732
 20
-21.7390747776
 10
-8.8378376651
 20
-21.7390863621
 10
-8.867670803
 20
-21.7390996994
  0
LWPOLYLINE
  5
80
330
1F
100
AcDbEntity
  8
0
  6
Continuous
 62
     7
370
    25
100
AcDbPolyline
 90
        9
 70
   128
 43
0.0
 10
8.867670803
 20
-21.7390996994
 10
8.8378376651
 20
-21.7390863621
 10
8.807804732
 20
-21.7390747776
 10
8.7776001964
 20
-21.7390649569
 10
8.7472524117
 20
-21.7390569092
 10
8.7167898662
 20
-21.739050642
 10
8.6862411556
 20
-21.7390461612
 10
8.6556349566
 20
-21.7390434711
 10
8.625
 20
-21.7390425741
  0
LWPOLYLINE
  5
88
330
1F
100
AcDbEntity
  8
0
  6
Continuous
 62
     7
370
    25
100
AcDbPolyline
 90
        9
 70
   128
 43
0.0
 10
-8.8600873404
 20
-21.7079076933
 10
-8.8311864881
 20
-21.7078947727
 10
-8.8020920842
 20
-21.7078835502
 10
-8.7728314402
 20
-21.7078740364
 10
-8.7434320239
 20
-21.7078662402
 10
-8.7139214329
 20
-21.7078601689
 10
-8.6843273695
 20
-21.7078558281
 10
-8.6546776142
 20
-21.707853222
 10
-8.625
 20
-21.7078523531
  0
LWPOLYLINE
  5
8C
330
1F
100
AcDbEntity
  8
0
  6
Continuous
 62
     7
370
    25
100
AcDbPolyline
 90
        9
 70
   128
 43
0.0
 10
8.625
 20
-21.7078523531
 10
8.6546776142
 20
-21.707853222
 10
8.6843273695
 20
-21.7078558281
 10
8.7139214329
 20
-21.7078601689
 10
8.7434320239
 20
-21.7078662402
 10
8.7728314402
 20
-21.7078740364
 10
8.8020920842
 20
-21.7078835502
 10
8.8311864881
 20
-21.7078947727
 10
8.8600873404
 20
-21.7079076933
  0
LWPOLYLINE
  5
E4
330
1F
100
AcDbEntity
  8
0
  6
Continuous
 62
     7
370
    25
100
AcDbPolyline
 90
        3
 70
   128
 43
0.0
 10
-0.0238405376
 20
0.3887643408
 10
0.0
 20
0.3899704724
 10
0.0238405376
 20
0.3887643408
  0
SPLINE
  5
E5
330
1F
100
AcDbEntity
  8
0
  6
Continuous
 62
     7
370
    25
100
AcDbSpline
210
0.0
220
0.0
230
1.0
 70
     8
 71
     3
 72
    11
 73
     7
 74
     0
 42
0.00000001
 43
0.00000001
 40
0.0
 40
0.0
 40
0.0
 40
0.0
 40
0.0437075451492775
 40
0.4364179222364256
 40
0.8291282993232207
 40
1.0
 40
1.0
 40
1.0
 40
1.0
 10
0.0343408477361515
 20
-0.3948266976846764
 30
0.0
 10
0.0333630687880803
 20
-0.3948991567657191
 30
0.0
 10
0.0235999888560828
 20
-0.3956226575134262
 30
0.0
 10
-0.000151480161667
 20
-0.3969971999277952
 30
0.0
 10
-0.0268079920723273
 20
-0.398582557152753
 30
0.0
 10
-0.0391984634203729
 20
-0.3995168727110356
 30
0.0
 10
-0.0429551139509024
 20
-0.3998001466026496
 30
0.0
  0
SPLINE
  5
E6
330
1F
100
AcDbEntity
  8
0
  6
Continuous
 62
     7
370
    25
100
AcDbSpline
210
0.0
220
0.0
230
1.0
 70
     8
 71
     3
 72
    10
 73
     6
 74
     0
 42
0.00000001
 43
0.00000001
 40
0.0
 40
0.0
 40
0.0
 40
0.0
 40
0.3794311214807451
 40
0.8436047305846914
 40
0.9999999999999999
 40
0.9999999999999999
 40
0.9999999999999999
 40
0.9999999999999999
 10
-0.0256511014091381
 20
-0.4025000000000436
 30
0.0
 10
-0.0172227721824134
 20
-0.401967816642635
 30
0.0
 10
0.0015162768941158
 20
-0.4007845916185599
 30
0.0
 10
0.0258746501084082
 20
-0.3993820093650636
 30
0.0
 10
0.0374309552985932
 20
-0.3985116104689845
 30
0.0
 10
0.0403433660336868
 20
-0.3982922532395741
 30
0.0
  0
SPLINE
  5
E7
330
1F
100
AcDbEntity
  8
0
  6
Continuous
 62
     7
370
    25
100
AcDbSpline
210
0.0
220
0.0
230
1.0
 70
    24
 71
     3
 72
     9
 73
     5
 74
     0
 42
0.00000001
 43
0.00000001
 40
0.0
 40
0.0
 40
0.0
 40
0.0
 40
0.4283661914688566
 40
1.0
 40
1.0
 40
1.0
 40
1.0
 10
0.0155718549500163
 20
-0.3839904146471813
 30
0.0
 10
0.0103812366347735
 20
-0.3844197597407229
 30
0.0
 10
-0.0017360088869713
 20
-0.3854220449399053
 30
0.0
 10
-0.0138532544092059
 20
-0.3864243301390966
 30
0.0
 10
-0.0207798816159878
 20
-0.386997270244744
 30
0.0
  0
SPLINE
  5
E9
330
1F
100
AcDbEntity
  8
0
  6
Continuous
 62
     7
370
    25
100
AcDbSpline
210
0.0
220
0.0
230
1.0
 70
    24
 71
     3
 72
     9
 73
     5
 74
     0
 42
0.00000001
 43
0.00000001
 40
0.0
 40
0.0
 40
0.0
 40
0.0
 40
0.4283661914016173
 40
1.0
 40
1.0
 40
1.0
 40
1.0
 10
0.0096538849424914
 20
-0.3805736730702811
 30
0.0
 10
0.0064359232963863
 20
-0.3808398486894558
 30
0.0
 10
-0.0010762513586113
 20
-0.3814612227019665
 30
0.0
 10
-0.0085884260139074
 20
-0.382082596714475
 30
0.0
 10
-0.0128826390229705
 20
-0.3824377951078109
 30
0.0
  0
SPLINE
  5
EA
330
1F
100
AcDbEntity
  8
0
  6
Continuous
 62
     7
370
    25
100
AcDbSpline
210
0.0
220
0.0
230
1.0
 70
     8
 71
     3
 72
    12
 73
     8
 74
     0
 42
0.00000001
 43
0.00000001
 40
0.0
 40
0.0
 40
0.0
 40
0.0
 40
0.2520529095701912
 40
0.5049541893046346
 40
0.6971627199577429
 40
0.8545355143773483
 40
1.0
 40
1.0
 40
1.0
 40
1.0
 10
9.071152072747683
 20
-0.023523529675811
 30
0.0
 10
9.071395583105636
 20
-0.0237142838539466
 30
0.0
 10
9.071883423438832
 20
-0.0240964342585636
 30
0.0
 10
9.072355273340829
 20
-0.0249324096130008
 30
0.0
 10
9.072540181052478
 20
-0.0258221217296412
 30
0.0
 10
9.072490695919376
 20
-0.0266440155589461
 30
0.0
 10
9.072299832429495
 20
-0.0271202889463829
 30
0.0
 10
9.072208153296145
 20
-0.027349061517941
 30
0.0
  0
SPLINE
  5
EC
330
1F
100
AcDbEntity
  8
0
  6
Continuous
 62
     7
370
    25
100
AcDbSpline
210
0.0
220
0.0
230
1.0
 70
     8
 71
     3
 72
    15
 73
    11
 74
     0
 42
0.00000001
 43
0.00000001
 40
0.0
 40
0.0
 40
0.0
 40
0.0
 40
0.1883858441808667
 40
0.3177585680802005
 40
0.4226043769228239
 40
0.5054293728961312
 40
0.5883277728747033
 40
0.6988380094249691
 40
0.8752813743667585
 40
1.0
 40
1.0
 40
1.0
 40
1.0
 10
9.067411835037966
 20
0.0296021134687505
 30
0.0
 10
9.064992259078783
 20
0.0273009867536163
 30
0.0
 10
9.060911055443261
 20
0.0234195765916607
 30
0.0
 10
9.057144710008496
 20
0.0158567531572103
 30
0.0
 10
9.05541950622517
 20
0.0089524263462793
 30
0.0
 10
9.055197273115997
 20
0.0023349137399548
 30
0.0
 10
9.056251868453373
 20
-0.0042968421918804
 30
0.0
 10
9.05923191809902
 20
-0.0119084262777879
 30
0.0
 10
9.063994024400651
 20
-0.0183225219895152
 30
0.0
 10
9.068250025125847
 20
-0.0214739567116406
 30
0.0
 10
9.070012540243132
 20
-0.0227790437399411
 30
0.0
  0
SPLINE
  5
EE
330
1F
100
AcDbEntity
  8
0
  6
Continuous
 62
     7
370
    25
100
AcDbSpline
210
0.0
220
0.0
230
1.0
 70
     8
 71
     3
 72
    12
 73
     8
 74
     0
 42
0.00000001
 43
0.00000001
 40
0.0
 40
0.0
 40
0.0
 40
0.0
 40
0.1495672850720701
 40
0.302446722628447
 40
0.4992665505824646
 40
0.7660320681534796
 40
1.0
 40
1.0
 40
1.0
 40
1.0
 10
9.069143966456675
 20
0.0343671423163002
 30
0.0
 10
9.06926069534714
 20
0.0341420619747284
 30
0.0
 10
9.069496738077602
 20
0.0336869169100575
 30
0.0
 10
9.069625962098838
 20
0.0328684214958846
 30
0.0
 10
9.069525012127079
 20
0.0319443355961308
 30
0.0
 10
9.069125245447088
 20
0.0310747429692807
 30
0.0
 10
9.068680040405964
 20
0.0306529141731836
 30
0.0
 10
9.06847201814813
 20
0.0304558144764645
 30
0.0
  0
SPLINE
  5
F2
330
1F
100
AcDbEntity
  8
0
  6
Continuous
 62
     7
370
    25
100
AcDbSpline
210
0.0
220
0.0
230
1.0
 70
     8
 71
     3
 72
    12
 73
     8
 74
     0
 42
0.00000001
 43
0.00000001
 40
0.0
 40
0.0
 40
0.0
 40
0.0
 40
0.2938453385230576
 40
0.5348029578139711
 40
0.7207603937754876
 40
0.8751765898925895
 40
1.0
 40
1.0
 40
1.0
 40
1.0
 10
9.044359405848484
 20
0.0604004719970699
 30
0.0
 10
9.044662470129827
 20
0.0605989573900186
 30
0.0
 10
9.045214051702924
 20
0.0609602038054486
 30
0.0
 10
9.046210808668143
 20
0.061111302226411
 30
0.0
 10
9.047090232621533
 20
0.060978168022979
 30
0.0
 10
9.0478044479287
 20
0.060665328867036
 30
0.0
 10
9.04816353396322
 20
0.0603594440620769
 30
0.0
 10
9.048324049672134
 20
0.0602227099326643
 30
0.0
  0
SPLINE
  5
F4
330
1F
100
AcDbEntity
  8
0
  6
Continuous
 62
     7
370
    25
100
AcDbSpline
210
0.0
220
0.0
230
1.0
 70
     8
 71
     3
 72
    15
 73
    11
 74
     0
 42
0.00000001
 43
0.00000001
 40
0.0
 40
0.0
 40
0.0
 40
0.0
 40
0.2256928926760646
 40
0.3428909870225973
 40
0.4410979036919103
 40
0.5228540960583711
 40
0.6045346451410872
 40
0.7230773741124051
 40
0.9158357597607862
 40
0.9999999999999999
 40
0.9999999999999999
 40
0.9999999999999999
 40
0.9999999999999999
 10
8.99267811973819
 20
0.0732600211195123
 30
0.0
 10
8.994459949497578
 20
0.0696552589321968
 30
0.0
 10
8.997167050096358
 20
0.0641786112197494
 30
0.0
 10
9.004000659495766
 20
0.0582095622245598
 30
0.0
 10
9.009958184254225
 20
0.054865165504073
 30
0.0
 10
9.016105177739623
 20
0.0529244002271022
 30
0.0
 10
9.022816244412976
 20
0.0521276517703859
 30
0.0
 10
9.031264659432022
 20
0.052981064335182
 30
0.0
 10
9.038214600344068
 20
0.0557879077575083
 30
0.0
 10
9.042114069189813
 20
0.05867063314621
 30
0.0
 10
9.043299222738344
 20
0.0595467709893362
 30
0.0
  0
SPLINE
  5
F6
330
1F
100
AcDbEntity
  8
0
  6
Continuous
 62
     7
370
    25
100
AcDbSpline
210
0.0
220
0.0
230
1.0
 70
     8
 71
     3
 72
    12
 73
     8
 74
     0
 42
0.00000001
 43
0.00000001
 40
0.0
 40
0.0
 40
0.0
 40
0.0
 40
0.1510917194795721
 40
0.3040926146879705
 40
0.5014278081238343
 40
0.7690216267658497
 40
1.0
 40
1.0
 40
1.0
 40
1.0
 10
8.988681566047255
 20
0.0763798508849347
 30
0.0
 10
8.988934337808908
 20
0.0764215520719002
 30
0.0
 10
8.989443075324017
 20
0.0765054813767164
 30
0.0
 10
8.990264106755737
 20
0.0763727233907318
 30
0.0
 10
8.99111181101665
 20
0.0759881867319721
 30
0.0
 10
8.991810596155904
 20
0.0753390533586497
 30
0.0
 10
8.992072487491702
 20
0.0747876002996412
 30
0.0
 10
8.992193816430005
 20
0.0745321232943837
 30
0.0
  0
SPLINE
  5
FA
330
1F
100
AcDbEntity
  8
0
  6
Continuous
 62
     7
370
    25
100
AcDbSpline
210
0.0
220
0.0
230
1.0
 70
     8
 71
     3
 72
    12
 73
     8
 74
     0
 42
0.00000001
 43
0.00000001
 40
0.0
 40
0.0
 40
0.0
 40
0.0
 40
0.2972549323490938
 40
0.5372558238083228
 40
0.7227118685449445
 40
0.8769016642258743
 40
1.0
 40
1.0
 40
1.0
 40
1.0
 10
8.956263547787447
 20
0.0608530743065546
 30
0.0
 10
8.95616763672564
 20
0.0612069319061524
 30
0.0
 10
8.955994287956903
 20
0.0618464908688252
 30
0.0
 10
8.956163309013832
 20
0.062844480863918
 30
0.0
 10
8.95656369680059
 20
0.0636369823302787
 30
0.0
 10
8.95708136349389
 20
0.0642151785784224
 30
0.0
 10
8.95748054196359
 20
0.0644600401501564
 30
0.0
 10
8.957657751875315
 20
0.0645687431509565
 30
0.0
  0
SPLINE
  5
FC
330
1F
100
AcDbEntity
  8
0
  6
Continuous
 62
     7
370
    25
100
AcDbSpline
210
0.0
220
0.0
230
1.0
 70
     8
 71
     3
 72
    15
 73
    11
 74
     0
 42
0.00000001
 43
0.00000001
 40
0.0
 40
0.0
 40
0.0
 40
0.0
 40
0.2256228664149604
 40
0.3428418134434159
 40
0.4410613335056289
 40
0.5228188276051182
 40
0.6045009630499252
 40
0.7230260190002981
 40
0.9157500941990422
 40
1.0
 40
1.0
 40
1.0
 40
1.0
 10
8.928062994098708
 20
0.0156750695996482
 30
0.0
 10
8.932040679854435
 20
0.0162554784908266
 30
0.0
 10
8.938084912070213
 20
0.0171374300410058
 30
0.0
 10
8.945872949211937
 20
0.0217905122685326
 30
0.0
 10
8.950895433321577
 20
0.0264228347694138
 30
0.0
 10
8.95464136646993
 20
0.0316691934785177
 30
0.0
 10
8.957473372907069
 20
0.037805241112435
 30
0.0
 10
8.959273003147437
 20
0.0461030511993154
 30
0.0
 10
8.958752056073775
 20
0.0535812529472684
 30
0.0
 10
8.957215301025682
 20
0.058181630076537
 30
0.0
 10
8.95674785109564
 20
0.0595809721316678
 30
0.0
  0
SPLINE
  5
FE
330
1F
100
AcDbEntity
  8
0
  6
Continuous
 62
     7
370
    25
100
AcDbSpline
210
0.0
220
0.0
230
1.0
 70
     8
 71
     3
 72
    12
 73
     8
 74
     0
 42
0.00000001
 43
0.00000001
 40
0.0
 40
0.0
 40
0.0
 40
0.0
 40
0.1516365002402027
 40
0.3046812393348918
 40
0.5022012835195531
 40
0.7700915977806981
 40
1.0
 40
1.0
 40
1.0
 40
1.0
 10
8.923860856661133
 20
0.0128382015862452
 30
0.0
 10
8.923899518198569
 20
0.0130924107302208
 30
0.0
 10
8.92397720032076
 20
0.0136031898428639
 30
0.0
 10
8.924358397605946
 20
0.0143436132153532
 30
0.0
 10
8.924987083464613
 20
0.0150306837135454
 30
0.0
 10
8.925819931131436
 20
0.0154930525198518
 30
0.0
 10
8.92642434599813
 20
0.0155713905456928
 30
0.0
 10
8.92670349508325
 20
0.0156075709731591
 30
0.0
  0
SPLINE
  5
102
330
1F
100
AcDbEntity
  8
0
  6
Continuous
 62
     7
370
    25
100
AcDbSpline
210
0.0
220
0.0
230
1.0
 70
     8
 71
     3
 72
    12
 73
     8
 74
     0
 42
0.00000001
 43
0.00000001
 40
0.0
 40
0.0
 40
0.0
 40
0.0
 40
0.2982712409787111
 40
0.5379875126760169
 40
0.7232943725888344
 40
0.8774171364892681
 40
1.0
 40
1.0
 40
1.0
 40
1.0
 10
8.92860998013685
 20
-0.022791203755711
 30
0.0
 10
8.928242513261575
 20
-0.0227729003876379
 30
0.0
 10
8.927579718586598
 20
-0.0227398868680274
 30
0.0
 10
8.926682298036924
 20
-0.0222690940865924
 30
0.0
 10
8.92605327355096
 20
-0.0216430890009015
 30
0.0
 10
8.925664536199125
 20
-0.0209726561502921
 30
0.0
 10
8.925555365390698
 20
-0.0205183107812349
 30
0.0
 10
8.925507001826743
 20
-0.0203170320545133
 30
0.0
  0
SPLINE
  5
104
330
1F
100
AcDbEntity
  8
0
  6
Continuous
 62
     7
370
    25
100
AcDbSpline
210
0.0
220
0.0
230
1.0
 70
     8
 71
     3
 72
    15
 73
    11
 74
     0
 42
0.00000001
 43
0.00000001
 40
0.0
 40
0.0
 40
0.0
 40
0.0
 40
0.2253905797268702
 40
0.3426787500117155
 40
0.4409400802054543
 40
0.522701914243841
 40
0.6043893336523684
 40
0.7228558457451276
 40
0.9154662151688708
 40
1.0
 40
1.0
 40
1.0
 40
1.0
 10
8.962862365565925
 20
-0.0635722953309128
 30
0.0
 10
8.963539122617398
 20
-0.0596142038543871
 30
0.0
 10
8.964568048763034
 20
-0.0535964109135657
 30
0.0
 10
8.962553579186432
 20
-0.0447550213760191
 30
0.0
 10
8.95970128515062
 20
-0.0385445208404167
 30
0.0
 10
8.955870061926198
 20
-0.0333587761573794
 30
0.0
 10
8.95091099587903
 20
-0.0287682659905372
 30
0.0
 10
8.943578622169255
 20
-0.0244916045155379
 30
0.0
 10
8.936303020538805
 20
-0.0226723420281049
 30
0.0
 10
8.931449796768977
 20
-0.0227117002019881
 30
0.0
 10
8.929969479152321
 20
-0.022723705129211
 30
0.0
  0
SPLINE
  5
106
330
1F
100
AcDbEntity
  8
0
  6
Continuous
 62
     7
370
    25
100
AcDbSpline
210
0.0
220
0.0
230
1.0
 70
     8
 71
     3
 72
    12
 73
     8
 74
     0
 42
0.00000001
 43
0.00000001
 40
0.0
 40
0.0
 40
0.0
 40
0.0
 40
0.1518462202167319
 40
0.3049078990791761
 40
0.5024991986623231
 40
0.7705037204673644
 40
1.0
 40
1.0
 40
1.0
 40
1.0
 10
8.964261855495039
 20
-0.0684454059502188
 30
0.0
 10
8.964031722674369
 20
-0.0683298945732221
 30
0.0
 10
8.963569614926415
 20
-0.06809794720417
 30
0.0
 10
8.962983153240813
 20
-0.067506083737567
 30
0.0
 10
8.962524221629362
 20
-0.0666955175063058
 30
0.0
 10
8.96234238648873
 20
-0.0657609110556605
 30
0.0
 10
8.962454660474735
 20
-0.0651622673032234
 30
0.0
 10
8.962506452274882
 20
-0.0648861139511479
 30
0.0
  0
SPLINE
  5
10A
330
1F
100
AcDbEntity
  8
0
  6
Continuous
 62
     7
370
    25
100
AcDbSpline
210
0.0
220
0.0
230
1.0
 70
     8
 71
     3
 72
    12
 73
     8
 74
     0
 42
0.00000001
 43
0.00000001
 40
0.0
 40
0.0
 40
0.0
 40
0.0
 40
0.2986733389058276
 40
0.5382770729739328
 40
0.7235249426134848
 40
0.8776212433009704
 40
1.0
 40
1.0
 40
1.0
 40
1.0
 10
8.999614993479602
 20
-0.0749388128720915
 30
0.0
 10
8.999483809687034
 20
-0.0752831030238776
 30
0.0
 10
8.999247386750378
 20
-0.0759035919360619
 30
0.0
 10
8.99852163517542
 20
-0.0766115948752119
 30
0.0
 10
8.997731888148353
 20
-0.0770159854926958
 30
0.0
 10
8.996974502974611
 20
-0.0771781428728987
 30
0.0
 10
8.996509064667922
 20
-0.0771415548237269
 30
0.0
 10
8.996303043329752
 20
-0.0771253595111731
 30
0.0
  0
SPLINE
  5
10C
330
1F
100
AcDbEntity
  8
0
  6
Continuous
 62
     7
370
    25
100
AcDbSpline
210
0.0
220
0.0
230
1.0
 70
     8
 71
     3
 72
    15
 73
    11
 74
     0
 42
0.00000001
 43
0.00000001
 40
0.0
 40
0.0
 40
0.0
 40
0.0
 40
0.1905788738320439
 40
0.3191753678222698
 40
0.4236417231756565
 40
0.5063856001265975
 40
0.5891942629600453
 40
0.7001093367870286
 40
0.8774106523711585
 40
1.0
 40
1.0
 40
1.0
 40
1.0
 10
9.04898468555929
 20
-0.054964908857007
 30
0.0
 10
9.046012200452786
 20
-0.0533582093174866
 30
0.0
 10
9.04103397800799
 20
-0.050667360609049
 30
0.0
 10
9.03263967724846
 20
-0.0494453424294401
 30
0.0
 10
9.025559398925022
 20
-0.0499555222577144
 30
0.0
 10
9.019211154440754
 20
-0.0518009840568547
 30
0.0
 10
9.013235348625903
 20
-0.054866236953295
 30
0.0
 10
9.006916358774737
 20
-0.0600768767649484
 30
0.0
 10
9.002323807500014
 20
-0.066580133037583
 30
0.0
 10
9.000653638634981
 20
-0.071580814839258
 30
0.0
 10
8.999970906770638
 20
-0.0736249942518454
 30
0.0
  0
SPLINE
  5
10E
330
1F
100
AcDbEntity
  8
0
  6
Continuous
 62
     7
370
    25
100
AcDbSpline
210
0.0
220
0.0
230
1.0
 70
     8
 71
     3
 72
    13
 73
     9
 74
     0
 42
0.00000001
 43
0.00000001
 40
0.0
 40
0.0
 40
0.0
 40
0.0
 40
0.1156773017508107
 40
0.2663352086421498
 40
0.4204449693756858
 40
0.657951786496637
 40
0.9827164964076404
 40
1.0
 40
1.0
 40
1.0
 40
1.0
 10
9.054051755339973
 20
-0.0551397888372634
 30
0.0
 10
9.053917095236896
 20
-0.0552810703254014
 30
0.0
 10
9.05360705406109
 20
-0.0556063565661006
 30
0.0
 10
9.05299794505175
 20
-0.055964026983966
 30
0.0
 10
9.052193978208907
 20
-0.0562114992500881
 30
0.0
 10
9.051179226660535
 20
-0.0562119888844514
 30
0.0
 10
9.050489096467896
 20
-0.0559442160559236
 30
0.0
 10
9.050141768357651
 20
-0.0557206894655871
 30
0.0
 10
9.05012421806385
 20
-0.0557093947928638
 30
0.0
  0
CIRCLE
  5
112
330
1F
100
AcDbEntity
  8
0
  6
Continuous
 62
     7
370
    25
100
AcDbCircle
 10
9.0
 20
0.0
 30
0.0
 40
0.077500000000001
  0
CIRCLE
  5
113
330
1F
100
AcDbEntity
  8
0
  6
Continuous
 62
     7
370
    25
100
AcDbCircle
 10
9.0
 20
0.0
 30
0.0
 40
0.0193749999999977
  0
CIRCLE
  5
114
330
1F
100
AcDbEntity
  8
0
  6
Continuous
 62
     7
370
    25
100
AcDbCircle
 10
9.0
 20
0.0
 30
0.0
 40
0.1795000000000004
  0
CIRCLE
  5
115
330
1F
100
AcDbEntity
  8
0
  6
Continuous
 62
     7
370
    25
100
AcDbCircle
 10
9.0
 20
0.0
 30
0.0
 40
0.1836453749327862
  0
SPLINE
  5
116
330
1F
100
AcDbEntity
  8
0
  6
Continuous
 62
     7
370
    25
100
AcDbSpline
210
0.0
220
0.0
230
1.0
 70
     8
 71
     3
 72
    12
 73
     8
 74
     0
 42
0.00000001
 43
0.00000001
 40
0.0
 40
0.0
 40
0.0
 40
0.0
 40
0.2520529095701912
 40
0.5049541893046346
 40
0.6971627199577429
 40
0.8545355143773483
 40
1.0
 40
1.0
 40
1.0
 40
1.0
 10
-8.928847927252331
 20
-0.023523529675811
 30
0.0
 10
-8.928604416894377
 20
-0.0237142838539466
 30
0.0
 10
-8.928116576561186
 20
-0.0240964342585636
 30
0.0
 10
-8.927644726659183
 20
-0.0249324096130008
 30
0.0
 10
-8.927459818947536
 20
-0.0258221217296412
 30
0.0
 10
-8.927509304080633
 20
-0.0266440155589439
 30
0.0
 10
-8.92770016757052
 20
-0.0271202889463829
 30
0.0
 10
-8.927791846703869
 20
-0.027349061517941
 30
0.0
  0
SPLINE
  5
118
330
1F
100
AcDbEntity
  8
0
  6
Continuous
 62
     7
370
    25
100
AcDbSpline
210
0.0
220
0.0
230
1.0
 70
     8
 71
     3
 72
    15
 73
    11
 74
     0
 42
0.00000001
 43
0.00000001
 40
0.0
 40
0.0
 40
0.0
 40
0.0
 40
0.1883858441808667
 40
0.3177585680802005
 40
0.4226043769228239
 40
0.5054293728961312
 40
0.5883277728747033
 40
0.6988380094249691
 40
0.8752813743667585
 40
1.0
 40
1.0
 40
1.0
 40
1.0
 10
-8.932588164962048
 20
0.0296021134687505
 30
0.0
 10
-8.93500774092123
 20
0.0273009867536163
 30
0.0
 10
-8.93908894455675
 20
0.0234195765916607
 30
0.0
 10
-8.942855289991517
 20
0.0158567531572103
 30
0.0
 10
-8.94458049377484
 20
0.0089524263462793
 30
0.0
 10
-8.94480272688402
 20
0.0023349137399548
 30
0.0
 10
-8.943748131546636
 20
-0.0042968421918804
 30
0.0
 10
-8.940768081900998
 20
-0.0119084262777879
 30
0.0
 10
-8.936005975599361
 20
-0.0183225219895152
 30
0.0
 10
-8.931749974874169
 20
-0.0214739567116406
 30
0.0
 10
-8.929987459756882
 20
-0.0227790437399411
 30
0.0
  0
SPLINE
  5
11A
330
1F
100
AcDbEntity
  8
0
  6
Continuous
 62
     7
370
    25
100
AcDbSpline
210
0.0
220
0.0
230
1.0
 70
     8
 71
     3
 72
    12
 73
     8
 74
     0
 42
0.00000001
 43
0.00000001
 40
0.0
 40
0.0
 40
0.0
 40
0.0
 40
0.1495672850720701
 40
0.302446722628447
 40
0.4992665505824646
 40
0.7660320681534796
 40
1.0
 40
1.0
 40
1.0
 40
1.0
 10
-8.930856033543337
 20
0.0343671423163002
 30
0.0
 10
-8.930739304652876
 20
0.0341420619747284
 30
0.0
 10
-8.930503261922413
 20
0.0336869169100575
 30
0.0
 10
-8.930374037901174
 20
0.0328684214958846
 30
0.0
 10
-8.930474987872934
 20
0.0319443355961308
 30
0.0
 10
-8.930874754552924
 20
0.0310747429692829
 30
0.0
 10
-8.931319959594052
 20
0.0306529141731836
 30
0.0
 10
-8.931527981851882
 20
0.0304558144764645
 30
0.0
  0
SPLINE
  5
11E
330
1F
100
AcDbEntity
  8
0
  6
Continuous
 62
     7
370
    25
100
AcDbSpline
210
0.0
220
0.0
230
1.0
 70
     8
 71
     3
 72
    12
 73
     8
 74
     0
 42
0.00000001
 43
0.00000001
 40
0.0
 40
0.0
 40
0.0
 40
0.0
 40
0.2938453385230576
 40
0.5348029578139711
 40
0.7207603937754876
 40
0.8751765898925895
 40
1.0
 40
1.0
 40
1.0
 40
1.0
 10
-8.955640594151529
 20
0.060400471997072
 30
0.0
 10
-8.955337529870187
 20
0.0605989573900186
 30
0.0
 10
-8.95478594829709
 20
0.0609602038054486
 30
0.0
 10
-8.953789191331872
 20
0.0611113022264131
 30
0.0
 10
-8.952909767378483
 20
0.060978168022979
 30
0.0
 10
-8.952195552071316
 20
0.060665328867036
 30
0.0
 10
-8.951836466036795
 20
0.0603594440620769
 30
0.0
 10
-8.951675950327878
 20
0.0602227099326643
 30
0.0
  0
SPLINE
  5
120
330
1F
100
AcDbEntity
  8
0
  6
Continuous
 62
     7
370
    25
100
AcDbSpline
210
0.0
220
0.0
230
1.0
 70
     8
 71
     3
 72
    15
 73
    11
 74
     0
 42
0.00000001
 43
0.00000001
 40
0.0
 40
0.0
 40
0.0
 40
0.0
 40
0.2256928926760646
 40
0.3428909870225973
 40
0.4410979036919103
 40
0.5228540960583711
 40
0.6045346451410872
 40
0.7230773741124051
 40
0.9158357597607862
 40
0.9999999999999999
 40
0.9999999999999999
 40
0.9999999999999999
 40
0.9999999999999999
 10
-9.007321880261822
 20
0.0732600211195123
 30
0.0
 10
-9.00554005050243
 20
0.069655258932199
 30
0.0
 10
-9.002832949903654
 20
0.0641786112197494
 30
0.0
 10
-8.995999340504245
 20
0.0582095622245598
 30
0.0
 10
-8.99004181574579
 20
0.054865165504073
 30
0.0
 10
-8.983894822260389
 20
0.0529244002271022
 30
0.0
 10
-8.977183755587037
 20
0.0521276517703859
 30
0.0
 10
-8.968735340567989
 20
0.052981064335182
 30
0.0
 10
-8.961785399655948
 20
0.0557879077575083
 30
0.0
 10
-8.957885930810198
 20
0.05867063314621
 30
0.0
 10
-8.95670077726167
 20
0.0595467709893362
 30
0.0
  0
SPLINE
  5
122
330
1F
100
AcDbEntity
  8
0
  6
Continuous
 62
     7
370
    25
100
AcDbSpline
210
0.0
220
0.0
230
1.0
 70
     8
 71
     3
 72
    12
 73
     8
 74
     0
 42
0.00000001
 43
0.00000001
 40
0.0
 40
0.0
 40
0.0
 40
0.0
 40
0.1510917194795721
 40
0.3040926146879705
 40
0.5014278081238343
 40
0.7690216267658497
 40
1.0
 40
1.0
 40
1.0
 40
1.0
 10
-9.01131843395276
 20
0.0763798508849347
 30
0.0
 10
-9.011065662191104
 20
0.0764215520719002
 30
0.0
 10
-9.010556924676001
 20
0.0765054813767164
 30
0.0
 10
-9.009735893244276
 20
0.0763727233907318
 30
0.0
 10
-9.00888818898336
 20
0.0759881867319721
 30
0.0
 10
-9.008189403844112
 20
0.0753390533586497
 30
0.0
 10
-9.00792751250831
 20
0.0747876002996412
 30
0.0
 10
-9.007806183570008
 20
0.0745321232943837
 30
0.0
  0
SPLINE
  5
126
330
1F
100
AcDbEntity
  8
0
  6
Continuous
 62
     7
370
    25
100
AcDbSpline
210
0.0
220
0.0
230
1.0
 70
     8
 71
     3
 72
    12
 73
     8
 74
     0
 42
0.00000001
 43
0.00000001
 40
0.0
 40
0.0
 40
0.0
 40
0.0
 40
0.2972549323490938
 40
0.5372558238083228
 40
0.7227118685449445
 40
0.8769016642258743
 40
1.0
 40
1.0
 40
1.0
 40
1.0
 10
-9.043736452212569
 20
0.0608530743065568
 30
0.0
 10
-9.043832363274378
 20
0.0612069319061524
 30
0.0
 10
-9.044005712043113
 20
0.0618464908688273
 30
0.0
 10
-9.043836690986181
 20
0.062844480863918
 30
0.0
 10
-9.043436303199424
 20
0.0636369823302787
 30
0.0
 10
-9.042918636506132
 20
0.0642151785784224
 30
0.0
 10
-9.042519458036422
 20
0.0644600401501564
 30
0.0
 10
-9.042342248124697
 20
0.0645687431509565
 30
0.0
  0
SPLINE
  5
128
330
1F
100
AcDbEntity
  8
0
  6
Continuous
 62
     7
370
    25
100
AcDbSpline
210
0.0
220
0.0
230
1.0
 70
     8
 71
     3
 72
    15
 73
    11
 74
     0
 42
0.00000001
 43
0.00000001
 40
0.0
 40
0.0
 40
0.0
 40
0.0
 40
0.2256228664149604
 40
0.3428418134434159
 40
0.4410613335056289
 40
0.5228188276051182
 40
0.6045009630499252
 40
0.7230260190002981
 40
0.9157500941990422
 40
1.0
 40
1.0
 40
1.0
 40
1.0
 10
-9.071937005901306
 20
0.0156750695996482
 30
0.0
 10
-9.067959320145578
 20
0.0162554784908266
 30
0.0
 10
-9.061915087929796
 20
0.0171374300410058
 30
0.0
 10
-9.054127050788079
 20
0.0217905122685326
 30
0.0
 10
-9.049104566678432
 20
0.0264228347694138
 30
0.0
 10
-9.045358633530087
 20
0.0316691934785177
 30
0.0
 10
-9.042526627092943
 20
0.037805241112435
 30
0.0
 10
-9.040726996852579
 20
0.0461030511993154
 30
0.0
 10
-9.041247943926235
 20
0.0535812529472684
 30
0.0
 10
-9.042784698974335
 20
0.058181630076537
 30
0.0
 10
-9.043252148904374
 20
0.0595809721316678
 30
0.0
  0
SPLINE
  5
12A
330
1F
100
AcDbEntity
  8
0
  6
Continuous
 62
     7
370
    25
100
AcDbSpline
210
0.0
220
0.0
230
1.0
 70
     8
 71
     3
 72
    12
 73
     8
 74
     0
 42
0.00000001
 43
0.00000001
 40
0.0
 40
0.0
 40
0.0
 40
0.0
 40
0.1516365002402027
 40
0.3046812393348918
 40
0.5022012835195531
 40
0.7700915977806981
 40
1.0
 40
1.0
 40
1.0
 40
1.0
 10
-9.076139143338882
 20
0.0128382015862452
 30
0.0
 10
-9.076100481801445
 20
0.0130924107302208
 30
0.0
 10
-9.076022799679253
 20
0.0136031898428639
 30
0.0
 10
-9.075641602394068
 20
0.0143436132153532
 30
0.0
 10
-9.0750129165354
 20
0.0150306837135454
 30
0.0
 10
-9.074180068868566
 20
0.0154930525198518
 30
0.0
 10
-9.073575654001882
 20
0.0155713905456928
 30
0.0
 10
-9.073296504916764
 20
0.0156075709731591
 30
0.0
  0
SPLINE
  5
12E
330
1F
100
AcDbEntity
  8
0
  6
Continuous
 62
     7
370
    25
100
AcDbSpline
210
0.0
220
0.0
230
1.0
 70
     8
 71
     3
 72
    12
 73
     8
 74
     0
 42
0.00000001
 43
0.00000001
 40
0.0
 40
0.0
 40
0.0
 40
0.0
 40
0.2982712409787111
 40
0.5379875126760169
 40
0.7232943725888344
 40
0.8774171364892681
 40
1.0
 40
1.0
 40
1.0
 40
1.0
 10
-9.071390019863165
 20
-0.022791203755711
 30
0.0
 10
-9.071757486738438
 20
-0.0227729003876379
 30
0.0
 10
-9.072420281413416
 20
-0.0227398868680274
 30
0.0
 10
-9.07331770196309
 20
-0.0222690940865924
 30
0.0
 10
-9.073946726449055
 20
-0.0216430890009015
 30
0.0
 10
-9.074335463800884
 20
-0.0209726561502921
 30
0.0
 10
-9.074444634609312
 20
-0.0205183107812349
 30
0.0
 10
-9.074492998173271
 20
-0.0203170320545133
 30
0.0
  0
SPLINE
  5
130
330
1F
100
AcDbEntity
  8
0
  6
Continuous
 62
     7
370
    25
100
AcDbSpline
210
0.0
220
0.0
230
1.0
 70
     8
 71
     3
 72
    15
 73
    11
 74
     0
 42
0.00000001
 43
0.00000001
 40
0.0
 40
0.0
 40
0.0
 40
0.0
 40
0.2253905797268701
 40
0.3426787500117154
 40
0.4409400802054542
 40
0.522701914243841
 40
0.6043893336523684
 40
0.7228558457451276
 40
0.9154662151688707
 40
0.9999999999999999
 40
0.9999999999999999
 40
0.9999999999999999
 40
0.9999999999999999
 10
-9.037137634434089
 20
-0.0635722953309128
 30
0.0
 10
-9.036460877382614
 20
-0.0596142038543871
 30
0.0
 10
-9.035431951236978
 20
-0.0535964109135635
 30
0.0
 10
-9.037446420813584
 20
-0.0447550213760191
 30
0.0
 10
-9.040298714849394
 20
-0.0385445208404167
 30
0.0
 10
-9.044129938073816
 20
-0.0333587761573794
 30
0.0
 10
-9.049089004120985
 20
-0.0287682659905372
 30
0.0
 10
-9.056421377830763
 20
-0.0244916045155379
 30
0.0
 10
-9.063696979461206
 20
-0.0226723420281049
 30
0.0
 10
-9.068550203231041
 20
-0.0227117002019881
 30
0.0
 10
-9.070030520847695
 20
-0.022723705129211
 30
0.0
  0
SPLINE
  5
132
330
1F
100
AcDbEntity
  8
0
  6
Continuous
 62
     7
370
    25
100
AcDbSpline
210
0.0
220
0.0
230
1.0
 70
     8
 71
     3
 72
    12
 73
     8
 74
     0
 42
0.00000001
 43
0.00000001
 40
0.0
 40
0.0
 40
0.0
 40
0.0
 40
0.1518462202167319
 40
0.3049078990791761
 40
0.5024991986623231
 40
0.7705037204673644
 40
1.0
 40
1.0
 40
1.0
 40
1.0
 10
-9.035738144504975
 20
-0.0684454059502188
 30
0.0
 10
-9.035968277325646
 20
-0.0683298945732221
 30
0.0
 10
-9.036430385073599
 20
-0.06809794720417
 30
0.0
 10
-9.0370168467592
 20
-0.067506083737567
 30
0.0
 10
-9.037475778370656
 20
-0.0666955175063058
 30
0.0
 10
-9.037657613511278
 20
-0.0657609110556605
 30
0.0
 10
-9.037545339525277
 20
-0.0651622673032234
 30
0.0
 10
-9.037493547725132
 20
-0.0648861139511479
 30
0.0
  0
SPLINE
  5
136
330
1F
100
AcDbEntity
  8
0
  6
Continuous
 62
     7
370
    25
100
AcDbSpline
210
0.0
220
0.0
230
1.0
 70
     8
 71
     3
 72
    12
 73
     8
 74
     0
 42
0.00000001
 43
0.00000001
 40
0.0
 40
0.0
 40
0.0
 40
0.0
 40
0.2986733389058279
 40
0.5382770729739331
 40
0.7235249426134847
 40
0.8776212433009704
 40
1.0
 40
1.0
 40
1.0
 40
1.0
 10
-9.000385006520412
 20
-0.0749388128720915
 30
0.0
 10
-9.000516190312979
 20
-0.0752831030238776
 30
0.0
 10
-9.000752613249634
 20
-0.0759035919360619
 30
0.0
 10
-9.001478364824592
 20
-0.0766115948752119
 30
0.0
 10
-9.002268111851658
 20
-0.0770159854926936
 30
0.0
 10
-9.003025497025405
 20
-0.0771781428728987
 30
0.0
 10
-9.003490935332094
 20
-0.0771415548237269
 30
0.0
 10
-9.003696956670264
 20
-0.0771253595111731
 30
0.0
  0
SPLINE
  5
138
330
1F
100
AcDbEntity
  8
0
  6
Continuous
 62
     7
370
    25
100
AcDbSpline
210
0.0
220
0.0
230
1.0
 70
     8
 71
     3
 72
    15
 73
    11
 74
     0
 42
0.00000001
 43
0.00000001
 40
0.0
 40
0.0
 40
0.0
 40
0.0
 40
0.1905788738320439
 40
0.3191753678222698
 40
0.4236417231756565
 40
0.5063856001265975
 40
0.5891942629600453
 40
0.7001093367870286
 40
0.8774106523711585
 40
1.0
 40
1.0
 40
1.0
 40
1.0
 10
-8.951015314440724
 20
-0.054964908857007
 30
0.0
 10
-8.953987799547226
 20
-0.0533582093174845
 30
0.0
 10
-8.958966021992023
 20
-0.050667360609049
 30
0.0
 10
-8.967360322751556
 20
-0.0494453424294401
 30
0.0
 10
-8.974440601074992
 20
-0.0499555222577144
 30
0.0
 10
-8.98078884555926
 20
-0.0518009840568547
 30
0.0
 10
-8.986764651374106
 20
-0.054866236953295
 30
0.0
 10
-8.993083641225281
 20
-0.0600768767649484
 30
0.0
 10
-8.9976761925
 20
-0.066580133037583
 30
0.0
 10
-8.999346361365033
 20
-0.071580814839258
 30
0.0
 10
-9.000029093229374
 20
-0.0736249942518454
 30
0.0
  0
SPLINE
  5
13A
330
1F
100
AcDbEntity
  8
0
  6
Continuous
 62
     7
370
    25
100
AcDbSpline
210
0.0
220
0.0
230
1.0
 70
     8
 71
     3
 72
    13
 73
     9
 74
     0
 42
0.00000001
 43
0.00000001
 40
0.0
 40
0.0
 40
0.0
 40
0.0
 40
0.1156773017508107
 40
0.2663352086421498
 40
0.4204449693756858
 40
0.657951786496637
 40
0.9827164964076404
 40
1.0
 40
1.0
 40
1.0
 40
1.0
 10
-8.94594824466004
 20
-0.0551397888372634
 30
0.0
 10
-8.946082904763118
 20
-0.0552810703254014
 30
0.0
 10
-8.946392945938925
 20
-0.0556063565661006
 30
0.0
 10
-8.94700205494827
 20
-0.055964026983966
 30
0.0
 10
-8.947806021791093
 20
-0.0562114992500881
 30
0.0
 10
-8.948820773339492
 20
-0.0562119888844514
 30
0.0
 10
-8.949510903532103
 20
-0.0559442160559236
 30
0.0
 10
-8.949858231642363
 20
-0.0557206894655871
 30
0.0
 10
-8.949875781936164
 20
-0.0557093947928638
 30
0.0
  0
CIRCLE
  5
13E
330
1F
100
AcDbEntity
  8
0
  6
Continuous
 62
     7
370
    25
100
AcDbCircle
 10
-9.0
 20
0.0
 30
0.0
 40
0.0775000000000023
  0
CIRCLE
  5
13F
330
1F
100
AcDbEntity
  8
0
  6
Continuous
 62
     7
370
    25
100
AcDbCircle
 10
-9.0
 20
0.0
 30
0.0
 40
0.1836453749327878
  0
CIRCLE
  5
140
330
1F
100
AcDbEntity
  8
0
  6
Continuous
 62
     7
370
    25
100
AcDbCircle
 10
-9.0
 20
0.0
 30
0.0
 40
0.1795000000000041
  0
CIRCLE
  5
141
330
1F
100
AcDbEntity
  8
0
  6
Continuous
 62
     7
370
    25
100
AcDbCircle
 10
-9.0
 20
0.0
 30
0.0
 40
0.0193750000000002
  0
CIRCLE
  5
169
330
1F
100
AcDbEntity
  8
0
  6
Continuous
 62
     7
370
    25
100
AcDbCircle
 10
-9.0
 20
0.0
 30
0.0
 40
0.1968855000000004
  0
CIRCLE
  5
175
330
1F
100
AcDbEntity
  8
0
  6
Continuous
 62
     7
370
    25
100
AcDbCircle
 10
9.0
 20
0.0
 30
0.0
 40
0.1968855000000006
  0
LINE
  5
185
330
1F
100
AcDbEntity
  8
0
  6
Continuous
 62
     7
370
    25
100
AcDbLine
 10
-8.9282571387
 20
-21.7392480176
 30
0.0
 11
-8.9282571387
 21
-21.8623727927
 31
0.0
  0
LINE
  5
186
330
1F
100
AcDbEntity
  8
0
  6
Continuous
 62
     7
370
    25
100
AcDbLine
 10
8.9282571387
 20
-21.8623727927
 30
0.0
 11
8.9282571387
 21
-21.7392480176
 31
0.0
  0
LINE
  5
187
330
1F
100
AcDbEntity
  8
0
  6
Continuous
 62
     7
370
    25
100
AcDbLine
 10
-8.8970070497
 20
-21.7079978966
 30
0.0
 11
-8.9282569927
 21
-21.7392477254
 31
0.0
  0
LINE
  5
188
330
1F
100
AcDbEntity
  8
0
  6
Continuous
 62
     7
370
    25
100
AcDbLine
 10
8.9282569927
 20
-21.7392477254
 30
0.0
 11
8.8970070497
 21
-21.7079978966
 31
0.0
  0
LINE
  5
189
330
1F
100
AcDbEntity
  8
0
  6
Continuous
 62
     7
370
    25
100
AcDbLine
 10
0.0259296189
 20
0.3899704724
 30
0.0
 11
-0.0259296189
 21
0.3899704724
 31
0.0
  0
LINE
  5
18A
330
1F
100
AcDbEntity
  8
0
  6
Continuous
 62
     7
370
    25
100
AcDbLine
 10
-11.75
 20
-1.5335950663
 30
0.0
 11
11.75
 21
-1.5335950663
 31
0.0
  0
LINE
  5
18B
330
1F
100
AcDbEntity
  8
0
  6
Continuous
 62
     7
370
    25
100
AcDbLine
 10
-9.0657452523
 20
-22.0186126992
 30
0.0
 11
-9.0519719632
 21
-21.9874163646
 31
0.0
  0
LINE
  5
18C
330
1F
100
AcDbEntity
  8
0
  6
Continuous
 62
     7
370
    25
100
AcDbLine
 10
9.0657452523
 20
-22.0186126992
 30
0.0
 11
9.0519719632
 21
-21.9874163646
 31
0.0
  0
LINE
  5
18D
330
1F
100
AcDbEntity
  8
0
  6
Continuous
 62
     7
370
    25
100
AcDbLine
 10
-9.169578807
 20
-22.0518502457
 30
0.0
 11
-9.1525607193
 21
-22.083150278
 31
0.0
  0
LINE
  5
18E
330
1F
100
AcDbEntity
  8
0
  6
Continuous
 62
     7
370
    25
100
AcDbLine
 10
9.1525607193
 20
-22.083150278
 30
0.0
 11
-9.1525607193
 21
-22.083150278
 31
0.0
  0
LINE
  5
18F
330
1F
100
AcDbEntity
  8
0
  6
Continuous
 62
     7
370
    25
100
AcDbLine
 10
-8.625
 20
-21.8952922887
 30
0.0
 11
8.625
 21
-21.8952922887
 31
0.0
  0
LINE
  5
190
330
1F
100
AcDbEntity
  8
0
  6
Continuous
 62
     7
370
    25
100
AcDbLine
 10
9.169578807
 20
-22.0518502457
 30
0.0
 11
9.1525607193
 21
-22.083150278
 31
0.0
  0
LINE
  5
191
330
1F
100
AcDbEntity
  8
0
  6
Continuous
 62
     7
370
    25
100
AcDbLine
 10
-9.625
 20
-22.0538514411
 30
0.0
 11
-9.625
 21
-21.9342594691
 31
0.0
  0
LINE
  5
192
330
1F
100
AcDbEntity
  8
0
  6
Continuous
 62
     7
370
    25
100
AcDbLine
 10
-8.867670803
 20
-21.7390996994
 30
0.0
 11
-8.867670803
 21
-21.8622244746
 31
0.0
  0
LINE
  5
193
330
1F
100
AcDbEntity
  8
0
  6
Continuous
 62
     7
370
    25
100
AcDbLine
 10
-8.625
 20
-21.7078523531
 30
0.0
 11
-8.625
 21
-21.8952922887
 31
0.0
  0
LINE
  5
194
330
1F
100
AcDbEntity
  8
0
  6
Continuous
 62
     7
370
    25
100
AcDbLine
 10
8.867670803
 20
-21.8622244746
 30
0.0
 11
8.867670803
 21
-21.7390996994
 31
0.0
  0
LINE
  5
195
330
1F
100
AcDbEntity
  8
0
  6
Continuous
 62
     7
370
    25
100
AcDbLine
 10
9.625
 20
-22.0203281662
 30
0.0
 11
9.0657452523
 21
-22.0186126992
 31
0.0
  0
LINE
  5
196
330
1F
100
AcDbEntity
  8
0
  6
Continuous
 62
     7
370
    25
100
AcDbLine
 10
9.625
 20
-21.9342594691
 30
0.0
 11
9.625
 21
-22.0538514411
 31
0.0
  0
LINE
  5
197
330
1F
100
AcDbEntity
  8
0
  6
Continuous
 62
     7
370
    25
100
AcDbLine
 10
8.625
 20
-21.8952922887
 30
0.0
 11
8.625
 21
-21.7078523531
 31
0.0
  0
LINE
  5
198
330
1F
100
AcDbEntity
  8
0
  6
Continuous
 62
     7
370
    25
100
AcDbLine
 10
8.625
 20
-21.7390425741
 30
0.0
 11
-8.625
 21
-21.7390425741
 31
0.0
  0
LINE
  5
199
330
1F
100
AcDbEntity
  8
0
  6
Continuous
 62
     7
370
    25
100
AcDbLine
 10
-8.867670803
 20
-21.7390996994
 30
0.0
 11
-8.8600873404
 21
-21.7079076933
 31
0.0
  0
LINE
  5
19A
330
1F
100
AcDbEntity
  8
0
  6
Continuous
 62
     7
370
    25
100
AcDbLine
 10
-8.625
 20
-21.7078523531
 30
0.0
 11
8.625
 21
-21.7078523531
 31
0.0
  0
LINE
  5
19B
330
1F
100
AcDbEntity
  8
0
  6
Continuous
 62
     7
370
    25
100
AcDbLine
 10
8.8600873404
 20
-21.7079076933
 30
0.0
 11
8.867670803
 21
-21.7390996994
 31
0.0
  0
LINE
  5
19C
330
1F
100
AcDbEntity
  8
0
  6
Continuous
 62
     7
370
    25
100
AcDbLine
 10
-8.867670803
 20
-21.7390996994
 30
0.0
 11
-8.9282571387
 21
-21.7392480176
 31
0.0
  0
LINE
  5
19D
330
1F
100
AcDbEntity
  8
0
  6
Continuous
 62
     7
370
    25
100
AcDbLine
 10
8.9282571387
 20
-21.7392480176
 30
0.0
 11
8.867670803
 21
-21.7390996994
 31
0.0
  0
LINE
  5
19E
330
1F
100
AcDbEntity
  8
0
  6
Continuous
 62
     7
370
    25
100
AcDbLine
 10
-8.8600873404
 20
-21.7079076933
 30
0.0
 11
-8.8970070497
 21
-21.7079978966
 31
0.0
  0
LINE
  5
19F
330
1F
100
AcDbEntity
  8
0
  6
Continuous
 62
     7
370
    25
100
AcDbLine
 10
8.8970070497
 20
-21.7079978966
 30
0.0
 11
8.8600873404
 21
-21.7079076933
 31
0.0
  0
LINE
  5
1A0
330
1F
100
AcDbEntity
  8
0
  6
Continuous
 62
     7
370
    25
100
AcDbLine
 10
-9.625
 20
-22.0203281662
 30
0.0
 11
-9.59375
 21
-21.9890782233
 31
0.0
  0
LINE
  5
1A1
330
1F
100
AcDbEntity
  8
0
  6
Continuous
 62
     7
370
    25
100
AcDbLine
 10
-9.0519719632
 20
-21.9874163646
 30
0.0
 11
-9.59375
 21
-21.9890782233
 31
0.0
  0
LINE
  5
1A2
330
1F
100
AcDbEntity
  8
0
  6
Continuous
 62
     7
370
    25
100
AcDbLine
 10
9.625
 20
-22.0203281662
 30
0.0
 11
9.59375
 21
-21.9890782233
 31
0.0
  0
LINE
  5
1A3
330
1F
100
AcDbEntity
  8
0
  6
Continuous
 62
     7
370
    25
100
AcDbLine
 10
-9.625
 20
-22.0534531057
 30
0.0
 11
-9.59375
 21
-22.0847030487
 31
0.0
  0
LINE
  5
1A4
330
1F
100
AcDbEntity
  8
0
  6
Continuous
 62
     7
370
    25
100
AcDbLine
 10
9.625
 20
-22.0534531057
 30
0.0
 11
9.59375
 21
-22.0847030487
 31
0.0
  0
LINE
  5
1A5
330
1F
100
AcDbEntity
  8
0
  6
Continuous
 62
     7
370
    25
100
AcDbLine
 10
9.59375
 20
-22.085101384
 30
0.0
 11
9.59375
 21
-22.0847030487
 31
0.0
  0
LINE
  5
1A6
330
1F
100
AcDbEntity
  8
0
  6
Continuous
 62
     7
370
    25
100
AcDbLine
 10
-9.59375
 20
-22.085101384
 30
0.0
 11
9.59375
 21
-22.085101384
 31
0.0
  0
LINE
  5
1A7
330
1F
100
AcDbEntity
  8
0
  6
Continuous
 62
     7
370
    25
100
AcDbLine
 10
-9.59375
 20
-22.0847030487
 30
0.0
 11
-9.59375
 21
-22.085101384
 31
0.0
  0
LINE
  5
1A8
330
1F
100
AcDbEntity
  8
0
  6
Continuous
 62
     7
370
    25
100
AcDbLine
 10
-9.625
 20
-22.0538514411
 30
0.0
 11
-9.59375
 21
-22.085101384
 31
0.0
  0
LINE
  5
1A9
330
1F
100
AcDbEntity
  8
0
  6
Continuous
 62
     7
370
    25
100
AcDbLine
 10
9.625
 20
-22.0538514411
 30
0.0
 11
9.59375
 21
-22.085101384
 31
0.0
  0
LINE
  5
1AA
330
1F
100
AcDbEntity
  8
0
  6
Continuous
 62
     7
370
    25
100
AcDbLine
 10
-9.59375
 20
-21.9342594691
 30
0.0
 11
-9.59375
 21
-21.9890782233
 31
0.0
  0
LINE
  5
1AB
330
1F
100
AcDbEntity
  8
0
  6
Continuous
 62
     7
370
    25
100
AcDbLine
 10
9.59375
 20
-21.9890782233
 30
0.0
 11
9.59375
 21
-21.9342594691
 31
0.0
  0
LINE
  5
1AC
330
1F
100
AcDbEntity
  8
0
  6
Continuous
 62
     7
370
    25
100
AcDbLine
 10
-0.1580496362
 20
0.53375
 30
0.0
 11
0.1580496362
 21
0.53375
 31
0.0
  0
LINE
  5
1AD
330
1F
100
AcDbEntity
  8
0
  6
Continuous
 62
     7
370
    25
100
AcDbLine
 10
-10.75
 20
-21.935568711
 30
0.0
 11
-10.75
 21
-21.935587822
 31
0.0
  0
LINE
  5
1AE
330
1F
100
AcDbEntity
  8
0
  6
Continuous
 62
     7
370
    25
100
AcDbLine
 10
-10.75
 20
-21.9355782665
 30
0.0
 11
-8.9530094288
 21
-21.9355782665
 31
0.0
  0
LINE
  5
1AF
330
1F
100
AcDbEntity
  8
0
  6
Continuous
 62
     7
370
    25
100
AcDbLine
 10
8.9522588725
 20
-21.9355782665
 30
0.0
 11
10.75
 21
-21.9355782665
 31
0.0
  0
LINE
  5
1B0
330
1F
100
AcDbEntity
  8
0
  6
Continuous
 62
     7
370
    25
100
AcDbLine
 10
10.75
 20
-21.935568711
 30
0.0
 11
10.75
 21
-21.935587822
 31
0.0
  0
LINE
  5
1B1
330
1F
100
AcDbEntity
  8
0
  6
Continuous
 62
     7
370
    25
100
AcDbLine
 10
-10.75
 20
-21.935587822
 30
0.0
 11
-8.953016524
 21
-21.935587822
 31
0.0
  0
LINE
  5
1B2
330
1F
100
AcDbEntity
  8
0
  6
Continuous
 62
     7
370
    25
100
AcDbLine
 10
8.9522641803
 20
-21.935587822
 30
0.0
 11
10.75
 21
-21.935587822
 31
0.0
  0
LINE
  5
1B3
330
1F
100
AcDbEntity
  8
0
  6
Continuous
 62
     7
370
    25
100
AcDbLine
 10
11.72
 20
-1.5591103822
 30
0.0
 11
11.72
 21
-1.5581059235
 31
0.0
  0
LINE
  5
1B4
330
1F
100
AcDbEntity
  8
0
  6
Continuous
 62
     7
370
    25
100
AcDbLine
 10
-10.75
 20
-21.935568711
 30
0.0
 11
-8.9530023337
 21
-21.935568711
 31
0.0
  0
LINE
  5
1B5
330
1F
100
AcDbEntity
  8
0
  6
Continuous
 62
     7
370
    25
100
AcDbLine
 10
8.9522535647
 20
-21.935568711
 30
0.0
 11
10.75
 21
-21.935568711
 31
0.0
  0
LINE
  5
1B6
330
1F
100
AcDbEntity
  8
0
  6
Continuous
 62
     7
370
    25
100
AcDbLine
 10
-11.72
 20
-1.5581059235
 30
0.0
 11
-11.72
 21
-1.5591103822
 31
0.0
  0
LINE
  5
1B7
330
1F
100
AcDbEntity
  8
0
  6
Continuous
 62
     7
370
    25
100
AcDbLine
 10
11.72
 20
-1.5581059235
 30
0.0
 11
-11.72
 21
-1.5581059235
 31
0.0
  0
LINE
  5
1B8
330
1F
100
AcDbEntity
  8
0
  6
Continuous
 62
     7
370
    25
100
AcDbLine
 10
-11.75
 20
-1.425980315
 30
0.0
 11
11.75
 21
-1.425980315
 31
0.0
  0
LINE
  5
1B9
330
1F
100
AcDbEntity
  8
0
  6
Continuous
 62
     7
370
    25
100
AcDbLine
 10
11.75
 20
-1.375
 30
0.0
 11
11.75
 21
-20.9342612952
 31
0.0
  0
LINE
  5
1BA
330
1F
100
AcDbEntity
  8
0
  6
Continuous
 62
     7
370
    25
100
AcDbLine
 10
11.72
 20
-1.455980315
 30
0.0
 11
-11.72
 21
-1.455980315
 31
0.0
  0
LINE
  5
1BB
330
1F
100
AcDbEntity
  8
0
  6
Continuous
 62
     7
370
    25
100
AcDbLine
 10
-11.75
 20
-20.9342612952
 30
0.0
 11
-11.75
 21
-1.375
 31
0.0
  0
LINE
  5
1BC
330
1F
100
AcDbEntity
  8
0
  6
Continuous
 62
     7
370
    25
100
AcDbLine
 10
10.75
 20
-21.9040158959
 30
0.0
 11
10.75
 21
-21.9342594691
 31
0.0
  0
LINE
  5
1BD
330
1F
100
AcDbEntity
  8
0
  6
Continuous
 62
     7
370
    25
100
AcDbLine
 10
-10.75
 20
-21.9342594691
 30
0.0
 11
-10.75
 21
-21.9040158959
 31
0.0
  0
LINE
  5
1BE
330
1F
100
AcDbEntity
  8
0
  6
Continuous
 62
     7
370
    25
100
AcDbLine
 10
-11.72
 20
-20.9340176673
 30
0.0
 11
-11.75
 21
-20.9340750004
 31
0.0
  0
LINE
  5
1BF
330
1F
100
AcDbEntity
  8
0
  6
Continuous
 62
     7
370
    25
100
AcDbLine
 10
11.75
 20
-20.9340750004
 30
0.0
 11
11.72
 21
-20.9340176673
 31
0.0
  0
LINE
  5
1C0
330
1F
100
AcDbEntity
  8
0
  6
Continuous
 62
     7
370
    25
100
AcDbLine
 10
-11.72
 20
-1.5890529943
 30
0.0
 11
-11.72
 21
-20.9340176673
 31
0.0
  0
LINE
  5
1C1
330
1F
100
AcDbEntity
  8
0
  6
Continuous
 62
     7
370
    25
100
AcDbLine
 10
11.72
 20
-1.5890529943
 30
0.0
 11
-11.72
 21
-1.5890529943
 31
0.0
  0
LINE
  5
1C2
330
1F
100
AcDbEntity
  8
0
  6
Continuous
 62
     7
370
    25
100
AcDbLine
 10
11.72
 20
-20.9340176673
 30
0.0
 11
11.72
 21
-1.5890529943
 31
0.0
  0
LINE
  5
1C3
330
1F
100
AcDbEntity
  8
0
  6
Continuous
 62
     7
370
    25
100
AcDbLine
 10
11.75
 20
-1.5591103822
 30
0.0
 11
11.72
 21
-1.5890529943
 31
0.0
  0
LINE
  5
1C4
330
1F
100
AcDbEntity
  8
0
  6
Continuous
 62
     7
370
    25
100
AcDbLine
 10
-11.72
 20
-1.5890529943
 30
0.0
 11
-11.75
 21
-1.5591103822
 31
0.0
  0
LINE
  5
1C5
330
1F
100
AcDbEntity
  8
0
  6
Continuous
 62
     7
370
    25
100
AcDbLine
 10
-10.75
 20
-21.9342594691
 30
0.0
 11
-8.9520301985
 21
-21.9342594691
 31
0.0
  0
LINE
  5
1C6
330
1F
100
AcDbEntity
  8
0
  6
Continuous
 62
     7
370
    25
100
AcDbLine
 10
8.9515263247
 20
-21.9342594691
 30
0.0
 11
10.75
 21
-21.9342594691
 31
0.0
  0
LINE
  5
1C7
330
1F
100
AcDbEntity
  8
0
  6
Continuous
 62
     7
370
    25
100
AcDbLine
 10
-11.75
 20
-1.5591103822
 30
0.0
 11
11.75
 21
-1.5591103822
 31
0.0
  0
LINE
  5
1C8
330
1F
100
AcDbEntity
  8
0
  6
Continuous
 62
     7
370
    25
100
AcDbLine
 10
-0.0042325897
 20
-0.3774436868
 30
0.0
 11
0.0034903218
 21
-0.377089991
 31
0.0
  0
LINE
  5
1C9
330
1F
100
AcDbEntity
  8
0
  6
Continuous
 62
     7
370
    25
100
AcDbLine
 10
9.0700125402
 20
-0.0227790437
 30
0.0
 11
9.0711520727
 21
-0.0235235297
 31
0.0
  0
LINE
  5
1CA
330
1F
100
AcDbEntity
  8
0
  6
Continuous
 62
     7
370
    25
100
AcDbLine
 10
9.0684720181
 20
0.0304558145
 30
0.0
 11
9.067411835
 21
0.0296021135
 31
0.0
  0
LINE
  5
1CB
330
1F
100
AcDbEntity
  8
0
  6
Continuous
 62
     7
370
    25
100
AcDbLine
 10
9.0604950185
 20
0.0483919847
 30
0.0
 11
9.0691439665
 21
0.0343671423
 31
0.0
  0
LINE
  5
1CC
330
1F
100
AcDbEntity
  8
0
  6
Continuous
 62
     7
370
    25
100
AcDbLine
 10
9.0601814285
 20
0.0487814219
 30
0.0
 11
9.0604950185
 21
0.0483919847
 31
0.0
  0
LINE
  5
1CD
330
1F
100
AcDbEntity
  8
0
  6
Continuous
 62
     7
370
    25
100
AcDbLine
 10
9.0483240497
 20
0.0602227099
 30
0.0
 11
9.0601814285
 21
0.0487814219
 31
0.0
  0
LINE
  5
1CE
330
1F
100
AcDbEntity
  8
0
  6
Continuous
 62
     7
370
    25
100
AcDbLine
 10
9.0432992227
 20
0.059546771
 30
0.0
 11
9.0443594058
 21
0.060400472
 31
0.0
  0
LINE
  5
1CF
330
1F
100
AcDbEntity
  8
0
  6
Continuous
 62
     7
370
    25
100
AcDbLine
 10
8.9921938164
 20
0.0745321233
 30
0.0
 11
8.9926781197
 21
0.0732600211
 31
0.0
  0
LINE
  5
1D0
330
1F
100
AcDbEntity
  8
0
  6
Continuous
 62
     7
370
    25
100
AcDbLine
 10
8.9726704764
 20
0.0724881272
 30
0.0
 11
8.988681566
 21
0.0763798509
 31
0.0
  0
LINE
  5
1D1
330
1F
100
AcDbEntity
  8
0
  6
Continuous
 62
     7
370
    25
100
AcDbLine
 10
8.972203195
 20
0.0723102281
 30
0.0
 11
8.9726704764
 21
0.0724881272
 31
0.0
  0
LINE
  5
1D2
330
1F
100
AcDbEntity
  8
0
  6
Continuous
 62
     7
370
    25
100
AcDbLine
 10
8.9576577519
 20
0.0645687432
 30
0.0
 11
8.972203195
 21
0.0723102281
 31
0.0
  0
LINE
  5
1D3
330
1F
100
AcDbEntity
  8
0
  6
Continuous
 62
     7
370
    25
100
AcDbLine
 10
8.9567478511
 20
0.0595809721
 30
0.0
 11
8.9562635478
 21
0.0608530743
 31
0.0
  0
LINE
  5
1D4
330
1F
100
AcDbEntity
  8
0
  6
Continuous
 62
     7
370
    25
100
AcDbLine
 10
8.9267034951
 20
0.015607571
 30
0.0
 11
8.9280629941
 21
0.0156750696
 31
0.0
  0
LINE
  5
1D5
330
1F
100
AcDbEntity
  8
0
  6
Continuous
 62
     7
370
    25
100
AcDbLine
 10
8.922614407
 20
-0.0035918583
 30
0.0
 11
8.9238608567
 21
0.0128382016
 31
0.0
  0
LINE
  5
1D6
330
1F
100
AcDbEntity
  8
0
  6
Continuous
 62
     7
370
    25
100
AcDbLine
 10
8.9226392013
 20
-0.0040912432
 30
0.0
 11
8.922614407
 21
-0.0035918583
 31
0.0
  0
LINE
  5
1D7
330
1F
100
AcDbEntity
  8
0
  6
Continuous
 62
     7
370
    25
100
AcDbLine
 10
8.9255070018
 20
-0.0203170321
 30
0.0
 11
8.9226392013
 21
-0.0040912432
 31
0.0
  0
LINE
  5
1D8
330
1F
100
AcDbEntity
  8
0
  6
Continuous
 62
     7
370
    25
100
AcDbLine
 10
8.9299694792
 20
-0.0227237051
 30
0.0
 11
8.9286099801
 21
-0.0227912038
 31
0.0
  0
LINE
  5
1D9
330
1F
100
AcDbEntity
  8
0
  6
Continuous
 62
     7
370
    25
100
AcDbLine
 10
8.9625064523
 20
-0.064886114
 30
0.0
 11
8.9628623656
 21
-0.0635722953
 31
0.0
  0
LINE
  5
1DA
330
1F
100
AcDbEntity
  8
0
  6
Continuous
 62
     7
370
    25
100
AcDbLine
 10
8.9795025969
 20
-0.0747080178
 30
0.0
 11
8.9642618555
 21
-0.068445406
 31
0.0
  0
LINE
  5
1DB
330
1F
100
AcDbEntity
  8
0
  6
Continuous
 62
     7
370
    25
100
AcDbLine
 10
8.979985202
 20
-0.0748387554
 30
0.0
 11
8.9795025969
 21
-0.0747080178
 31
0.0
  0
LINE
  5
1DC
330
1F
100
AcDbEntity
  8
0
  6
Continuous
 62
     7
370
    25
100
AcDbLine
 10
8.9963030433
 20
-0.0771253595
 30
0.0
 11
8.979985202
 21
-0.0748387554
 31
0.0
  0
LINE
  5
1DD
330
1F
100
AcDbEntity
  8
0
  6
Continuous
 62
     7
370
    25
100
AcDbLine
 10
8.9999709068
 20
-0.0736249943
 30
0.0
 11
8.9996149935
 21
-0.0749388129
 31
0.0
  0
LINE
  5
1DE
330
1F
100
AcDbEntity
  8
0
  6
Continuous
 62
     7
370
    25
100
AcDbLine
 10
9.0501242181
 20
-0.0557093948
 30
0.0
 11
9.0489846856
 21
-0.0549649089
 31
0.0
  0
LINE
  5
1DF
330
1F
100
AcDbEntity
  8
0
  6
Continuous
 62
     7
370
    25
100
AcDbLine
 10
9.0647175012
 20
-0.0425802359
 30
0.0
 11
9.0540517553
 21
-0.0551397888
 31
0.0
  0
LINE
  5
1E0
330
1F
100
AcDbEntity
  8
0
  6
Continuous
 62
     7
370
    25
100
AcDbLine
 10
9.0649909733
 20
-0.0421616513
 30
0.0
 11
9.0647175012
 21
-0.0425802359
 31
0.0
  0
LINE
  5
1E1
330
1F
100
AcDbEntity
  8
0
  6
Continuous
 62
     7
370
    25
100
AcDbLine
 10
9.0722081533
 20
-0.0273490615
 30
0.0
 11
9.0649909733
 21
-0.0421616513
 31
0.0
  0
LINE
  5
1E2
330
1F
100
AcDbEntity
  8
0
  6
Continuous
 62
     7
370
    25
100
AcDbLine
 10
-8.9299874598
 20
-0.0227790437
 30
0.0
 11
-8.9288479273
 21
-0.0235235297
 31
0.0
  0
LINE
  5
1E3
330
1F
100
AcDbEntity
  8
0
  6
Continuous
 62
     7
370
    25
100
AcDbLine
 10
-8.9315279819
 20
0.0304558145
 30
0.0
 11
-8.932588165
 21
0.0296021135
 31
0.0
  0
LINE
  5
1E4
330
1F
100
AcDbEntity
  8
0
  6
Continuous
 62
     7
370
    25
100
AcDbLine
 10
-8.9395049815
 20
0.0483919847
 30
0.0
 11
-8.9308560335
 21
0.0343671423
 31
0.0
  0
LINE
  5
1E5
330
1F
100
AcDbEntity
  8
0
  6
Continuous
 62
     7
370
    25
100
AcDbLine
 10
-8.9398185715
 20
0.0487814219
 30
0.0
 11
-8.9395049815
 21
0.0483919847
 31
0.0
  0
LINE
  5
1E6
330
1F
100
AcDbEntity
  8
0
  6
Continuous
 62
     7
370
    25
100
AcDbLine
 10
-8.9516759503
 20
0.0602227099
 30
0.0
 11
-8.9398185715
 21
0.0487814219
 31
0.0
  0
LINE
  5
1E7
330
1F
100
AcDbEntity
  8
0
  6
Continuous
 62
     7
370
    25
100
AcDbLine
 10
-8.9567007773
 20
0.059546771
 30
0.0
 11
-8.9556405942
 21
0.060400472
 31
0.0
  0
LINE
  5
1E8
330
1F
100
AcDbEntity
  8
0
  6
Continuous
 62
     7
370
    25
100
AcDbLine
 10
-9.0078061836
 20
0.0745321233
 30
0.0
 11
-9.0073218803
 21
0.0732600211
 31
0.0
  0
LINE
  5
1E9
330
1F
100
AcDbEntity
  8
0
  6
Continuous
 62
     7
370
    25
100
AcDbLine
 10
-9.0273295236
 20
0.0724881272
 30
0.0
 11
-9.011318434
 21
0.0763798509
 31
0.0
  0
LINE
  5
1EA
330
1F
100
AcDbEntity
  8
0
  6
Continuous
 62
     7
370
    25
100
AcDbLine
 10
-9.027796805
 20
0.0723102281
 30
0.0
 11
-9.0273295236
 21
0.0724881272
 31
0.0
  0
LINE
  5
1EB
330
1F
100
AcDbEntity
  8
0
  6
Continuous
 62
     7
370
    25
100
AcDbLine
 10
-9.0423422481
 20
0.0645687432
 30
0.0
 11
-9.027796805
 21
0.0723102281
 31
0.0
  0
LINE
  5
1EC
330
1F
100
AcDbEntity
  8
0
  6
Continuous
 62
     7
370
    25
100
AcDbLine
 10
-9.0432521489
 20
0.0595809721
 30
0.0
 11
-9.0437364522
 21
0.0608530743
 31
0.0
  0
LINE
  5
1ED
330
1F
100
AcDbEntity
  8
0
  6
Continuous
 62
     7
370
    25
100
AcDbLine
 10
-9.0732965049
 20
0.015607571
 30
0.0
 11
-9.0719370059
 21
0.0156750696
 31
0.0
  0
LINE
  5
1EE
330
1F
100
AcDbEntity
  8
0
  6
Continuous
 62
     7
370
    25
100
AcDbLine
 10
-9.077385593
 20
-0.0035918583
 30
0.0
 11
-9.0761391433
 21
0.0128382016
 31
0.0
  0
LINE
  5
1EF
330
1F
100
AcDbEntity
  8
0
  6
Continuous
 62
     7
370
    25
100
AcDbLine
 10
-9.0773607987
 20
-0.0040912432
 30
0.0
 11
-9.077385593
 21
-0.0035918583
 31
0.0
  0
LINE
  5
1F0
330
1F
100
AcDbEntity
  8
0
  6
Continuous
 62
     7
370
    25
100
AcDbLine
 10
-9.0744929982
 20
-0.0203170321
 30
0.0
 11
-9.0773607987
 21
-0.0040912432
 31
0.0
  0
LINE
  5
1F1
330
1F
100
AcDbEntity
  8
0
  6
Continuous
 62
     7
370
    25
100
AcDbLine
 10
-9.0700305208
 20
-0.0227237051
 30
0.0
 11
-9.0713900199
 21
-0.0227912038
 31
0.0
  0
LINE
  5
1F2
330
1F
100
AcDbEntity
  8
0
  6
Continuous
 62
     7
370
    25
100
AcDbLine
 10
-9.0374935477
 20
-0.064886114
 30
0.0
 11
-9.0371376344
 21
-0.0635722953
 31
0.0
  0
LINE
  5
1F3
330
1F
100
AcDbEntity
  8
0
  6
Continuous
 62
     7
370
    25
100
AcDbLine
 10
-9.0204974031
 20
-0.0747080178
 30
0.0
 11
-9.0357381445
 21
-0.068445406
 31
0.0
  0
LINE
  5
1F4
330
1F
100
AcDbEntity
  8
0
  6
Continuous
 62
     7
370
    25
100
AcDbLine
 10
-9.020014798
 20
-0.0748387554
 30
0.0
 11
-9.0204974031
 21
-0.0747080178
 31
0.0
  0
LINE
  5
1F5
330
1F
100
AcDbEntity
  8
0
  6
Continuous
 62
     7
370
    25
100
AcDbLine
 10
-9.0036969567
 20
-0.0771253595
 30
0.0
 11
-9.020014798
 21
-0.0748387554
 31
0.0
  0
LINE
  5
1F6
330
1F
100
AcDbEntity
  8
0
  6
Continuous
 62
     7
370
    25
100
AcDbLine
 10
-9.0000290932
 20
-0.0736249943
 30
0.0
 11
-9.0003850065
 21
-0.0749388129
 31
0.0
  0
LINE
  5
1F7
330
1F
100
AcDbEntity
  8
0
  6
Continuous
 62
     7
370
    25
100
AcDbLine
 10
-8.9498757819
 20
-0.0557093948
 30
0.0
 11
-8.9510153144
 21
-0.0549649089
 31
0.0
  0
LINE
  5
1F8
330
1F
100
AcDbEntity
  8
0
  6
Continuous
 62
     7
370
    25
100
AcDbLine
 10
-8.9352824988
 20
-0.0425802359
 30
0.0
 11
-8.9459482447
 21
-0.0551397888
 31
0.0
  0
LINE
  5
1F9
330
1F
100
AcDbEntity
  8
0
  6
Continuous
 62
     7
370
    25
100
AcDbLine
 10
-8.9350090267
 20
-0.0421616513
 30
0.0
 11
-8.9352824988
 21
-0.0425802359
 31
0.0
  0
LINE
  5
1FA
330
1F
100
AcDbEntity
  8
0
  6
Continuous
 62
     7
370
    25
100
AcDbLine
 10
-8.9277918467
 20
-0.0273490615
 30
0.0
 11
-8.9350090267
 21
-0.0421616513
 31
0.0
  0
LINE
  5
1FB
330
1F
100
AcDbEntity
  8
0
  6
Continuous
 62
     7
370
    25
100
AcDbLine
 10
0.0476313972
 20
-0.4025
 30
0.0
 11
-0.0476313972
 21
-0.4025
 31
0.0
  0
LINE
  5
1FC
330
1F
100
AcDbEntity
  8
0
  6
Continuous
 62
     7
370
    25
100
AcDbLine
 10
11.1583484861
 20
-1.515980315
 30
0.0
 11
9.0916515139
 21
-1.515980315
 31
0.0
  0
LINE
  5
1FD
330
1F
100
AcDbEntity
  8
0
  6
Continuous
 62
     7
370
    25
100
AcDbLine
 10
8.5
 20
1.375
 30
0.0
 11
8.5
 21
1.4497
 31
0.0
  0
LINE
  5
1FE
330
1F
100
AcDbEntity
  8
0
  6
Continuous
 62
     7
370
    25
100
AcDbLine
 10
9.5
 20
1.4497
 30
0.0
 11
9.5
 21
1.375
 31
0.0
  0
LINE
  5
1FF
330
1F
100
AcDbEntity
  8
0
  6
Continuous
 62
     7
370
    25
100
AcDbLine
 10
-11.625
 20
1.4497
 30
0.0
 11
11.625
 21
1.4497
 31
0.0
  0
LINE
  5
200
330
1F
100
AcDbEntity
  8
0
  6
Continuous
 62
     7
370
    25
100
AcDbLine
 10
-9.5
 20
1.375
 30
0.0
 11
-9.5
 21
1.4497
 31
0.0
  0
LINE
  5
201
330
1F
100
AcDbEntity
  8
0
  6
Continuous
 62
     7
370
    25
100
AcDbLine
 10
-8.5
 20
1.4497
 30
0.0
 11
-8.5
 21
1.375
 31
0.0
  0
LINE
  5
202
330
1F
100
AcDbEntity
  8
0
  6
Continuous
 62
     7
370
    25
100
AcDbLine
 10
11.625
 20
1.375
 30
0.0
 11
11.625
 21
1.4497
 31
0.0
  0
LINE
  5
203
330
1F
100
AcDbEntity
  8
0
  6
Continuous
 62
     7
370
    25
100
AcDbLine
 10
10.75
 20
-1.455980315
 30
0.0
 11
10.75
 21
1.4497
 31
0.0
  0
LINE
  5
204
330
1F
100
AcDbEntity
  8
0
  6
Continuous
 62
     7
370
    25
100
AcDbLine
 10
-10.75
 20
1.4497
 30
0.0
 11
-10.75
 21
-1.455980315
 31
0.0
  0
LINE
  5
205
330
1F
100
AcDbEntity
  8
0
  6
Continuous
 62
     7
370
    25
100
AcDbLine
 10
-11.625
 20
1.375
 30
0.0
 11
-11.625
 21
1.4497
 31
0.0
  0
LINE
  5
206
330
1F
100
AcDbEntity
  8
0
  6
Continuous
 62
     7
370
    25
100
AcDbLine
 10
0.1688749537
 20
-0.5275
 30
0.0
 11
-0.1688749537
 21
-0.5275
 31
0.0
  0
LINE
  5
207
330
1F
100
AcDbEntity
  8
0
  6
Continuous
 62
     7
370
    25
100
AcDbLine
 10
-12.0
 20
1.375
 30
0.0
 11
-12.0
 21
-1.375
 31
0.0
  0
LINE
  5
208
330
1F
100
AcDbEntity
  8
0
  6
Continuous
 62
     7
370
    25
100
AcDbLine
 10
0.0
 20
1.375
 30
0.0
 11
0.0
 21
0.625
 31
0.0
  0
LINE
  5
209
330
1F
100
AcDbEntity
  8
0
  6
Continuous
 62
     7
370
    25
100
AcDbLine
 10
0.0
 20
0.625
 30
0.0
 11
-0.2165063509
 21
0.5
 31
0.0
  0
LINE
  5
20A
330
1F
100
AcDbEntity
  8
0
  6
Continuous
 62
     7
370
    25
100
AcDbLine
 10
-0.2165063509
 20
0.5
 30
0.0
 11
0.0
 21
0.375
 31
0.0
  0
LINE
  5
20B
330
1F
100
AcDbEntity
  8
0
  6
Continuous
 62
     7
370
    25
100
AcDbLine
 10
0.0
 20
-0.375
 30
0.0
 11
0.0
 21
0.375
 31
0.0
  0
LINE
  5
20C
330
1F
100
AcDbEntity
  8
0
  6
Continuous
 62
     7
370
    25
100
AcDbLine
 10
0.0
 20
-0.375
 30
0.0
 11
-0.2165063509
 21
-0.5
 31
0.0
  0
LINE
  5
20D
330
1F
100
AcDbEntity
  8
0
  6
Continuous
 62
     7
370
    25
100
AcDbLine
 10
-0.2165063509
 20
-0.5
 30
0.0
 11
0.0
 21
-0.625
 31
0.0
  0
LINE
  5
20E
330
1F
100
AcDbEntity
  8
0
  6
Continuous
 62
     7
370
    25
100
AcDbLine
 10
0.0
 20
-0.625
 30
0.0
 11
0.0
 21
-1.375
 31
0.0
  0
LINE
  5
20F
330
1F
100
AcDbEntity
  8
0
  6
Continuous
 62
     7
370
    25
100
AcDbLine
 10
12.0
 20
-1.375
 30
0.0
 11
12.0
 21
1.375
 31
0.0
  0
LINE
  5
210
330
1F
100
AcDbEntity
  8
0
  6
Continuous
 62
     7
370
    25
100
AcDbLine
 10
-12.0
 20
-1.375
 30
0.0
 11
12.0
 21
-1.375
 31
0.0
  0
LINE
  5
211
330
1F
100
AcDbEntity
  8
0
  6
Continuous
 62
     7
370
    25
100
AcDbLine
 10
12.0
 20
1.375
 30
0.0
 11
-12.0
 21
1.375
 31
0.0
  0
LINE
  5
212
330
1F
100
AcDbEntity
  8
0
  6
Continuous
 62
     7
370
    25
100
AcDbLine
 10
0.0
 20
-0.625
 30
0.0
 11
0.2165063509
 21
-0.5
 31
0.0
  0
LINE
  5
213
330
1F
100
AcDbEntity
  8
0
  6
Continuous
 62
     7
370
    25
100
AcDbLine
 10
0.0
 20
0.375
 30
0.0
 11
0.2165063509
 21
0.5
 31
0.0
  0
LINE
  5
214
330
1F
100
AcDbEntity
  8
0
  6
Continuous
 62
     7
370
    25
100
AcDbLine
 10
0.2165063509
 20
0.5
 30
0.0
 11
0.0
 21
0.625
 31
0.0
  0
LINE
  5
215
330
1F
100
AcDbEntity
  8
0
  6
Continuous
 62
     7
370
    25
100
AcDbLine
 10
0.2165063509
 20
-0.5
 30
0.0
 11
0.0
 21
-0.375
 31
0.0
  0
LINE
  5
216
330
1F
100
AcDbEntity
  8
0
  6
Continuous
 62
     7
370
    25
100
AcDbLine
 10
-8.867670803
 20
-21.8622244746
 30
0.0
 11
-8.928256753
 21
-21.862372318
 31
0.0
  0
LINE
  5
217
330
1F
100
AcDbEntity
  8
0
  6
Continuous
 62
     7
370
    25
100
AcDbLine
 10
8.9282570417
 20
-21.8623725546
 30
0.0
 11
8.867670803
 21
-21.8622244746
 31
0.0
  0
LINE
  5
218
330
1F
100
AcDbEntity
  8
0
  6
Continuous
 62
     7
370
    25
100
AcDbLine
 10
0.1926906523
 20
0.51375
 30
0.0
 11
-0.1926906523
 21
0.51375
 31
0.0
  0
LINE
  5
219
330
1F
100
AcDbEntity
  8
0
  6
Continuous
 62
     7
370
    25
100
AcDbLine
 10
-10.75
 20
-21.9040158959
 30
0.0
 11
-8.9365348067
 21
-21.9040158959
 31
0.0
  0
LINE
  5
21A
330
1F
100
AcDbEntity
  8
0
  6
Continuous
 62
     7
370
    25
100
AcDbLine
 10
8.9359235399
 20
-21.9040158959
 30
0.0
 11
10.75
 21
-21.9040158959
 31
0.0
  0
LINE
  5
21B
330
1F
100
AcDbEntity
  8
0
  6
Continuous
 62
     7
370
    25
100
AcDbLine
 10
10.75
 20
-21.9340731742
 30
0.0
 11
8.9514228442
 21
-21.9340731742
 31
0.0
  0
LINE
  5
21C
330
1F
100
AcDbEntity
  8
0
  6
Continuous
 62
     7
370
    25
100
AcDbLine
 10
-8.9518918712
 20
-21.9340731742
 30
0.0
 11
-10.75
 21
-21.9340731742
 31
0.0
  0
LINE
  5
21D
330
1F
100
AcDbEntity
  8
0
  6
Continuous
 62
     7
370
    25
100
AcDbLine
 10
-11.75
 20
-1.5151299306
 30
0.0
 11
9.0786379164
 21
-1.5151299306
 31
0.0
  0
LINE
  5
21E
330
1F
100
AcDbEntity
  8
0
  6
Continuous
 62
     7
370
    25
100
AcDbLine
 10
11.1713620836
 20
-1.5151299306
 30
0.0
 11
11.75
 21
-1.5151299306
 31
0.0
  0
LINE
  5
21F
330
1F
100
AcDbEntity
  8
0
  6
Continuous
 62
     7
370
    25
100
AcDbLine
 10
0.0129903811
 20
-0.6175
 30
0.0
 11
-0.0129903811
 21
-0.6175
 31
0.0
  0
ARC
  5
220
330
1F
100
AcDbEntity
  8
0
  6
Continuous
 62
     7
370
    25
100
AcDbCircle
 10
-9.1740351984
 20
-77.8767190641
 30
0.0
 40
55.85821133359747
100
AcDbArc
 50
89.8889230319
 51
90.462575867
  0
ARC
  5
221
330
1F
100
AcDbEntity
  8
0
  6
Continuous
 62
     7
370
    25
100
AcDbCircle
 10
-9.2455212047
 20
-65.1746043018
 30
0.0
 40
43.12282092618553
100
AcDbArc
 50
89.8990979478
 51
90.5042066717
  0
ARC
  5
222
330
1F
100
AcDbEntity
  8
0
  6
Continuous
 62
     7
370
    25
100
AcDbCircle
 10
9.2455212047
 20
-65.1746043036
 30
0.0
 40
43.12282092797032
100
AcDbArc
 50
89.4957933283
 51
90.1009020522
  0
ARC
  5
223
330
1F
100
AcDbEntity
  8
0
  6
Continuous
 62
     7
370
    25
100
AcDbCircle
 10
9.1568778485
 20
-76.0999569046
 30
0.0
 40
54.11264222836558
100
AcDbArc
 50
89.537424133
 51
90.1110769681
  0
ARC
  5
224
330
1F
100
AcDbEntity
  8
0
  6
Continuous
 62
     7
370
    25
100
AcDbCircle
 10
-9.2261299171
 20
-63.858318271
 30
0.0
 40
41.77523277341466
100
AcDbArc
 50
89.8990979478
 51
90.5042066717
  0
ARC
  5
225
330
1F
100
AcDbEntity
  8
0
  6
Continuous
 62
     7
370
    25
100
AcDbCircle
 10
9.2261299171
 20
-63.8583182702
 30
0.0
 40
41.77523277261434
100
AcDbArc
 50
89.4957933283
 51
90.1009020522
  0
ARC
  5
226
330
1F
100
AcDbEntity
  8
0
  6
Continuous
 62
     7
370
    25
100
AcDbCircle
 10
0.0
 20
0.15375
 30
0.0
 40
0.2499999999997981
100
AcDbArc
 50
80.0346008768
 51
99.9653991232
  0
ARC
  5
227
330
1F
100
AcDbEntity
  8
0
  6
Continuous
 62
     7
370
    25
100
AcDbCircle
 10
-10.7500000116
 20
-20.96557665
 30
0.0
 40
0.9700016164751625
100
AcDbArc
 50
253.0501598233
 51
270.0000006861
  0
ARC
  5
228
330
1F
100
AcDbEntity
  8
0
  6
Continuous
 62
     7
370
    25
100
AcDbCircle
 10
-10.7500000117
 20
-20.9655862062
 30
0.0
 40
0.9700016157851654
100
AcDbArc
 50
252.9909842703
 51
270.0000006899
  0
ARC
  5
229
330
1F
100
AcDbEntity
  8
0
  6
Continuous
 62
     7
370
    25
100
AcDbCircle
 10
10.7500000116
 20
-20.96557665
 30
0.0
 40
0.9700016164714
100
AcDbArc
 50
269.9999993139
 51
286.9498594584
  0
ARC
  5
22A
330
1F
100
AcDbEntity
  8
0
  6
Continuous
 62
     7
370
    25
100
AcDbCircle
 10
10.7500000117
 20
-20.9655862062
 30
0.0
 40
0.9700016157924345
100
AcDbArc
 50
269.9999993102
 51
287.009026139
  0
ARC
  5
22B
330
1F
100
AcDbEntity
  8
0
  6
Continuous
 62
     7
370
    25
100
AcDbCircle
 10
-10.7500000116
 20
-20.9655670938
 30
0.0
 40
0.9700016171635435
100
AcDbArc
 50
253.1095632933
 51
270.0000006823
  0
ARC
  5
22C
330
1F
100
AcDbEntity
  8
0
  6
Continuous
 62
     7
370
    25
100
AcDbCircle
 10
-10.7500000116
 20
-20.96557665
 30
0.0
 40
0.9700016164740789
100
AcDbArc
 50
253.0501521516
 51
270.0000006861
  0
ARC
  5
22D
330
1F
100
AcDbEntity
  8
0
  6
Continuous
 62
     7
370
    25
100
AcDbCircle
 10
10.7500000116
 20
-20.9655670938
 30
0.0
 40
0.9700016171620228
100
AcDbArc
 50
269.9999993177
 51
286.8904309129
  0
ARC
  5
22E
330
1F
100
AcDbEntity
  8
0
  6
Continuous
 62
     7
370
    25
100
AcDbCircle
 10
10.7500000116
 20
-20.96557665
 30
0.0
 40
0.9700016164730237
100
AcDbArc
 50
269.9999993139
 51
286.9498504683
  0
ARC
  5
22F
330
1F
100
AcDbEntity
  8
0
  6
Continuous
 62
     7
370
    25
100
AcDbCircle
 10
11.72
 20
-1.425980315
 30
0.0
 40
0.0300000000000047
100
AcDbArc
 50
270.0
 51
360.0
  0
ARC
  5
230
330
1F
100
AcDbEntity
  8
0
  6
Continuous
 62
     7
370
    25
100
AcDbCircle
 10
-11.72
 20
-1.425980315
 30
0.0
 40
0.0299999999999856
100
AcDbArc
 50
180.0
 51
270.0
  0
ARC
  5
231
330
1F
100
AcDbEntity
  8
0
  6
Continuous
 62
     7
370
    25
100
AcDbCircle
 10
-10.7500009391
 20
-20.9340741133
 30
0.0
 40
0.9999990609337321
100
AcDbArc
 50
180.0000508266
 51
270.0000538046
  0
ARC
  5
232
330
1F
100
AcDbEntity
  8
0
  6
Continuous
 62
     7
370
    25
100
AcDbCircle
 10
-10.7500008605
 20
-20.9340167564
 30
0.0
 40
0.9699991395237393
100
AcDbArc
 50
180.0000538047
 51
270.0000508265
  0
ARC
  5
233
330
1F
100
AcDbEntity
  8
0
  6
Continuous
 62
     7
370
    25
100
AcDbCircle
 10
10.7500009109
 20
-20.9340168068
 30
0.0
 40
0.9699990891057017
100
AcDbArc
 50
269.9999461954
 51
359.9999491734
  0
ARC
  5
234
330
1F
100
AcDbEntity
  8
0
  6
Continuous
 62
     7
370
    25
100
AcDbCircle
 10
10.7500008871
 20
-20.9340740613
 30
0.0
 40
0.9999991129110013
100
AcDbArc
 50
269.9999491735
 51
359.9999461953
  0
ARC
  5
235
330
1F
100
AcDbEntity
  8
0
  6
Continuous
 62
     7
370
    25
100
AcDbCircle
 10
-10.7500008871
 20
-20.9342603562
 30
0.0
 40
0.9999991129110629
100
AcDbArc
 50
180.0000538047
 51
270.0000508265
  0
ARC
  5
236
330
1F
100
AcDbEntity
  8
0
  6
Continuous
 62
     7
370
    25
100
AcDbCircle
 10
10.7500009391
 20
-20.9342604081
 30
0.0
 40
0.9999990609336789
100
AcDbArc
 50
269.9999461954
 51
359.9999491734
  0
ARC
  5
237
330
1F
100
AcDbEntity
  8
0
  6
Continuous
 62
     7
370
    25
100
AcDbCircle
 10
11.1583484861
 20
-1.415980315
 30
0.0
 40
0.0999999999999908
100
AcDbArc
 50
270.0
 51
336.4218215218
  0
ARC
  5
238
330
1F
100
AcDbEntity
  8
0
  6
Continuous
 62
     7
370
    25
100
AcDbCircle
 10
11.1492435761
 20
-1.4419447291
 30
0.0
 40
0.0745933466026328
100
AcDbArc
 50
277.0110416804
 51
349.1544970883
  0
ARC
  5
239
330
1F
100
AcDbEntity
  8
0
  6
Continuous
 62
     7
370
    25
100
AcDbCircle
 10
9.1007564239
 20
-1.4419447291
 30
0.0
 40
0.0745933466026319
100
AcDbArc
 50
190.8455029117
 51
262.9889583196
  0
ARC
  5
23A
330
1F
100
AcDbEntity
  8
0
  6
Continuous
 62
     7
370
    25
100
AcDbCircle
 10
9.0916515139
 20
-1.415980315
 30
0.0
 40
0.0999999999999951
100
AcDbArc
 50
203.5781784782
 51
270.0
  0
ARC
  5
23B
330
1F
100
AcDbEntity
  8
0
  6
Continuous
 62
     7
370
    25
100
AcDbCircle
 10
0.0
 20
0.15375
 30
0.0
 40
0.2700000000000687
100
AcDbArc
 50
75.2072348062
 51
104.7927651938
  0
ENDSEC
  0
SECTION
  2
OBJECTS
  0
DICTIONARY
  5
C
330
0
100
AcDbDictionary
281
     1
  3
ACAD_GROUP
350
D
  3
ACAD_LAYOUT
350
1A
  3
ACAD_MLINESTYLE
350
17
  3
ACAD_PLOTSETTINGS
350
19
  3
ACAD_PLOTSTYLENAME
350
E
  3
ACAD_SCALELIST
350
47
  3
DWGPROPS
350
23C
  0
DICTIONARY
  5
D
102
{ACAD_REACTORS
330
C
102
}
330
C
100
AcDbDictionary
281
     1
  0
DICTIONARY
  5
1A
102
{ACAD_REACTORS
330
C
102
}
330
C
100
AcDbDictionary
281
     1
  3
Layout1
350
1E
  3
Layout2
350
26
  3
Model
350
22
  0
DICTIONARY
  5
17
102
{ACAD_REACTORS
330
C
102
}
330
C
100
AcDbDictionary
281
     1
  3
Standard
350
18
  0
DICTIONARY
  5
19
102
{ACAD_REACTORS
330
C
102
}
330
C
100
AcDbDictionary
281
     1
  0
ACDBDICTIONARYWDFLT
  5
E
102
{ACAD_REACTORS
330
C
102
}
330
C
100
AcDbDictionary
281
     1
  3
Normal
350
F
100
AcDbDictionaryWithDefault
340
F
  0
DICTIONARY
  5
47
102
{ACAD_REACTORS
330
C
102
}
330
C
100
AcDbDictionary
281
     1
  3
A0
350
48
  3
A1
350
49
  3
A2
350
4A
  3
A3
350
4B
  3
A4
350
4C
  3
A5
350
4D
  3
A6
350
4E
  3
A7
350
4F
  3
A8
350
50
  3
A9
350
51
  3
B1
350
52
  3
B2
350
53
  3
B3
350
54
  3
B4
350
55
  3
B5
350
56
  3
B6
350
57
  3
B7
350
58
  0
XRECORD
  5
23C
102
{ACAD_REACTORS
330
C
102
}
330
C
100
AcDbXrecord
280
     1
  1
DWGPROPS COOKIE
  2

  3

  4

  6

  7

  8
rmcneal
  9

300
=
301
=
302
=
303
=
304
=
305
=
306
=
307
=
308
=
309
=
 40
0.0
 41
2460900.774037304
 42
2460900.77430985
  1

 90
        0
  0
LAYOUT
  5
1E
102
{ACAD_REACTORS
330
1A
102
}
330
1A
100
AcDbPlotSettings
  1

  2
none_device
  4

  6

 40
0.0
 41
0.0
 42
0.0
 43
0.0
 44
0.0
 45
0.0
 46
0.0
 47
0.0
 48
0.0
 49
0.0
140
0.0
141
0.0
142
1.0
143
1.0
 70
   688
 72
     0
 73
     0
 74
     5
  7

 75
    16
147
1.0
148
0.0
149
0.0
100
AcDbLayout
  1
Layout1
 70
     1
 71
     1
 10
0.0
 20
0.0
 11
12.0
 21
9.0
 12
0.0
 22
0.0
 32
0.0
 14
1.0000000000E+20
 24
1.0000000000E+20
 34
1.0000000000E+20
 15
-1.0000000000E+20
 25
-1.0000000000E+20
 35
-1.0000000000E+20
146
0.0
 13
0.0
 23
0.0
 33
0.0
 16
1.0
 26
0.0
 36
0.0
 17
0.0
 27
1.0
 37
0.0
 76
     0
330
1B
  0
LAYOUT
  5
26
102
{ACAD_REACTORS
330
1A
102
}
330
1A
100
AcDbPlotSettings
  1

  2
none_device
  4

  6

 40
0.0
 41
0.0
 42
0.0
 43
0.0
 44
0.0
 45
0.0
 46
0.0
 47
0.0
 48
0.0
 49
0.0
140
0.0
141
0.0
142
1.0
143
1.0
 70
   688
 72
     0
 73
     0
 74
     5
  7

 75
    16
147
1.0
148
0.0
149
0.0
100
AcDbLayout
  1
Layout2
 70
     1
 71
     2
 10
0.0
 20
0.0
 11
0.0
 21
0.0
 12
0.0
 22
0.0
 32
0.0
 14
0.0
 24
0.0
 34
0.0
 15
0.0
 25
0.0
 35
0.0
146
0.0
 13
0.0
 23
0.0
 33
0.0
 16
1.0
 26
0.0
 36
0.0
 17
0.0
 27
1.0
 37
0.0
 76
     0
330
23
  0
LAYOUT
  5
22
102
{ACAD_REACTORS
330
1A
102
}
330
1A
100
AcDbPlotSettings
  1

  2
none_device
  4
ANSI_A_(11.00_x_8.50_Inches)
  6

 40
6.35
 41
19.05
 42
6.35000508
 43
19.05000254
 44
279.4
 45
215.9
 46
133.34999746
 47
182.6044506022
 48
0.0
 49
0.0
140
0.0
141
0.0
142
0.3575555987
143
1.0
 70
  1696
 72
     0
 73
     0
 74
     0
  7

 75
     0
147
0.5913241897
148
-39.4088153714
149
0.0
100
AcDbLayout
  1
Model
 70
     1
 71
     0
 10
0.0
 20
0.0
 11
12.0
 21
9.0
 12
0.0
 22
0.0
 32
0.0
 14
-12.0
 24
-22.085101384
 34
0.0
 15
12.0
 25
1.4497
 35
0.0
146
0.0
 13
0.0
 23
0.0
 33
0.0
 16
1.0
 26
0.0
 36
0.0
 17
0.0
 27
1.0
 37
0.0
 76
     0
330
1F
331
29
  0
MLINESTYLE
  5
18
102
{ACAD_REACTORS
330
17
102
}
330
17
100
AcDbMlineStyle
  2
Standard
 70
     0
  3

 62
   256
 51
90.0
 52
90.0
 71
     2
 49
0.5
 62
   256
  6
BYLAYER
 49
-0.5
 62
   256
  6
BYLAYER
  0
ACDBPLACEHOLDER
  5
F
102
{ACAD_REACTORS
330
E
102
}
330
E
  0
SCALE
  5
48
102
{ACAD_REACTORS
330
47
102
}
330
47
100
AcDbScale
 70
     0
300
1:1
140
1.0
141
1.0
290
     1
  0
SCALE
  5
49
102
{ACAD_REACTORS
330
47
102
}
330
47
100
AcDbScale
 70
     0
300
1/128" = 1'-0"
140
0.0078125
141
12.0
290
     0
  0
SCALE
  5
4A
102
{ACAD_REACTORS
330
47
102
}
330
47
100
AcDbScale
 70
     0
300
1/64" = 1'-0"
140
0.015625
141
12.0
290
     0
  0
SCALE
  5
4B
102
{ACAD_REACTORS
330
47
102
}
330
47
100
AcDbScale
 70
     0
300
1/32" = 1'-0"
140
0.03125
141
12.0
290
     0
  0
SCALE
  5
4C
102
{ACAD_REACTORS
330
47
102
}
330
47
100
AcDbScale
 70
     0
300
1/16" = 1'-0"
140
0.0625
141
12.0
290
     0
  0
SCALE
  5
4D
102
{ACAD_REACTORS
330
47
102
}
330
47
100
AcDbScale
 70
     0
300
3/32" = 1'-0"
140
0.09375
141
12.0
290
     0
  0
SCALE
  5
4E
102
{ACAD_REACTORS
330
47
102
}
330
47
100
AcDbScale
 70
     0
300
1/8" = 1'-0"
140
0.125
141
12.0
290
     0
  0
SCALE
  5
4F
102
{ACAD_REACTORS
330
47
102
}
330
47
100
AcDbScale
 70
     0
300
3/16" = 1'-0"
140
0.1875
141
12.0
290
     0
  0
SCALE
  5
50
102
{ACAD_REACTORS
330
47
102
}
330
47
100
AcDbScale
 70
     0
300
1/4" = 1'-0"
140
0.25
141
12.0
290
     0
  0
SCALE
  5
51
102
{ACAD_REACTORS
330
47
102
}
330
47
100
AcDbScale
 70
     0
300
3/8" = 1'-0"
140
0.375
141
12.0
290
     0
  0
SCALE
  5
52
102
{ACAD_REACTORS
330
47
102
}
330
47
100
AcDbScale
 70
     0
300
1/2" = 1'-0"
140
0.5
141
12.0
290
     0
  0
SCALE
  5
53
102
{ACAD_REACTORS
330
47
102
}
330
47
100
AcDbScale
 70
     0
300
3/4" = 1'-0"
140
0.75
141
12.0
290
     0
  0
SCALE
  5
54
102
{ACAD_REACTORS
330
47
102
}
330
47
100
AcDbScale
 70
     0
300
1" = 1'-0"
140
1.0
141
12.0
290
     0
  0
SCALE
  5
55
102
{ACAD_REACTORS
330
47
102
}
330
47
100
AcDbScale
 70
     0
300
1-1/2" = 1'-0"
140
1.5
141
12.0
290
     0
  0
SCALE
  5
56
102
{ACAD_REACTORS
330
47
102
}
330
47
100
AcDbScale
 70
     0
300
3" = 1'-0"
140
3.0
141
12.0
290
     0
  0
SCALE
  5
57
102
{ACAD_REACTORS
330
47
102
}
330
47
100
AcDbScale
 70
     0
300
6" = 1'-0"
140
6.0
141
12.0
290
     0
  0
SCALE
  5
58
102
{ACAD_REACTORS
330
47
102
}
330
47
100
AcDbScale
 70
     0
300
1'-0" = 1'-0"
140
12.0
141
12.0
290
     0
  0
ENDSEC
  0
EOF
